Govt Mule - Thorazine Shuffle Chords & Tabs

 

Thorazine Shuffle Chords & Tabs

Govt Mule Chords & Tabs

Version: 1 Type: Tab 0 ratings
1 star 2 stars 3 stars 4 stars 5 stars
comments

Thorazine Shuffle Tab

   

  B
thorazine shuffle,main riff                                      ETC.

E-||------------------------------------------------------------------||-
B-||------------------------------------------------------------------||-
G-||----------------------------------------9-9-----------------------||-
D-||----------9--------------------------9--9-9-----------------------||-
A-||----5-7-9----7-5-7-8-7-5-------5-7-9----7-7-5-7-8-7-5-------------||-
E-||-7-----------------------7-7-7------------------------7-5-7-------||-



CHORDS, during verses                      riff before next part
[ Tab from: http://www.guitartabs.cc/tabs/g/govt_mule/thorazine_shuffle_tab.html ]
E|------------9---10-------14---14----------------||-------------------
B|-10----9----7----9-------12---12----------------||-------------------
G|--7----7----7----9-------14---13----------------||-9-9---------------
D|--9----9----------------------------------------||-9-9---------------
A|------------------------------------------------||-7-7-5-7-8-7-5-7-5-
E|------------------------------------------------||-------------------



       stand right back and watch me now

E|-------------------------------------------------||-------------------
B|-------------------------------------------------||-------------------
G|---------9-9-----------9-----------------7-4-7-4-||-7-4-------------9-
D|---------9-9-----------9-----------------7-4-7-4-||-7-4-------------9-
A|-7-5---5-7-7---7-5---7-7-------7-5---5-7---------||------7-5---5-7--7-
E|-----7-------------7---------------7-------------||----------7--------





E-|---------------------
B-|---------------------
G-|---------------------
D-|-------------------4-
A-|--7-5---4--------4---
E-|------7---7-5-2------

Comments