Govt Mule - Soulshine Chords & Tabs

 

Soulshine Chords & Tabs

Govt Mule Chords & Tabs

Version: 1 Type: Tab 0 ratings
1 star 2 stars 3 stars 4 stars 5 stars
comments

Soulshine Tab

Soulshine
	-Gov't Mule



e|-------------------------------------------------------------------------|
B|---------------------4-6-------------------------------------------------|
G|--------3----5b-5b-------5b-3-5br----5b--3h5h3---33-3h5-3-5h3--3-----3---|
D|---3h5----5-----------------------------------5--------------5--5-3-0hold|
A|-------------------------------------------------------------------------|
E|-------------------------------------------------------------------------|

[ Tab from: http://www.guitartabs.cc/tabs/g/govt_mule/soulshine_tab.html ]
    
e|-------------------------------------------------------------------------|
B|--------------------16-18-----------------------------------------18b----|
G|-------15--15b-15b--------17b-15-17br--17b-15h17h15---15-15-15h17--------|
D|-/15h17--17-----------------------------------------17-------------------|
A|-------------------------------------------------------------------------|
E|-------------------------------------------------------------------------|


e|----------------------------18\------------------------------------------|
B|-18-16-------------------------------------------------------------------|
G|-------17-15-15----17b17b------------------------------------------------|
D|----------------17-------------------------------------------------------|
A|-------------------------------------------------------------------------|
E|-------------------------------------------------------------------------|

This is not completly right, but it sounds about right.  If you've got any questions
email me. skweeks101@hotmail.com
Comments