Govt Mule - Rockin Horse Chords & Tabs

 

Govt Mule Chords & Tabs

Version: 1 Type: Tab 0 ratings
1 star 2 stars 3 stars 4 stars 5 stars
comments

Rockin Horse Tab

Rockin'Horse
Artist: Gov't Mule 
Album:  Gov't Mule (1995)
Artist: The Allman Brothers
Album:  Hittin' The note
Compiled with TabPlayer :: http://www.simoneperandini.com/tabplayer.htm


Intro
 e|----------------------------------------------------------------------------|
 B|-----------------------2---9---7--------------------------------------------|
 G|--11--10---9---7---4---2---9---7--------------------------------------------|
 D|-----------------------2---9---7--------------------------------------------|
 A|---9---8---7---5---2--------------------------------------------------------|
 E|----------------------------------------------------------------------------|

 Verse
 e|----------------------------------------------------------------------------|
 B|---------------------------7----------------------------------------------10|
 G|-------------------9---9-b----10-p-7-------------------------7-/-9---7-/11--|
 D|---9---7---9-p-7---9----------------10-----9-p-7-7---9-p-7---7-/-9---7------|
 A|---9---7--------------------------------------------------------------------|
 E|----------------------------------------------------------------------------|
 
  
 e|----------------12-\10-------9-\-7------------------------------------------|
 B|----------------------------------------------------------------------------|
 G|----------11-/13-------7-/-9----------------14-14-x-13-13-------------------|
 D|---9-7-9-----------------------------9-7-9--14-14-x-14-14-----9-7-9---------|
 A|---9-7-9-----------------------------9-7-9--------------------9-7-9---------|
 E|----------------------------------------------------------------------------|
[ Tab from: http://www.guitartabs.cc/tabs/g/govt_mule/rockin_horse_tab.html ]
 Pre Chorus 
 e|----------------------------------------------------------------------------|
 B|---9-------9----------------10-------------9-------9---2--------------------|
 G|---7---7---7---6---7---8--11-----9-7-------7---7---7---2--------------------|
 D|---9---7---9---5---6---7-------------9-----9---7---9---2--------------------|
 A|---7---9---7---7---8---9-------------------7---9---7---0--------------------|
 E|-------7-------5---6---7-----------------------7----------------------------|


 Chorus
 e|--------------------------------------------------------0-------------------|
 B|---4---------------------------------------2------------0------------------4|
 G|---4---------7-------------7---------------2-------------------------------4|
 D|---4-----9---7---------7---7-h-9-p-7-------2---------2---------------------4|
 A|---2-/-9---8-----7-h-9-----------------9-\-0---2-/-4----------0-2-4-b-2-0--2|
 E|----------------------------------------------------------0-2---------------|

 Verse 2
 e|----------------------------------10-------9--------------------------------|
 B|----------------10------------------------------------10-10-10--------------|
 G|-------------/11-------------9-/11--11-\-9-------------9--9--9-9-7----------|
 D|-----9-7-9-----------9-7-9---------------------9-7-9-------------9-----9-7-9|
 A|-----9-7-9-----------9-7-9---------------------9-7-9-------------------9-7-9|
 E|----------------------------------------------------------------------------|

 Bridge
 e|----------------------------------------------------------------------------|
 B|----------------------------------------------------------------------------|
 G|----1010--10----10--12--10--------------------------------------------------|
 D|----1010--10----10--12--10--12----------------------------------------------|
 A|----------------------------12----------------------------------------------|
 E|----------------------------10----------------------------------------------|


Solo

Bridge (Start on 14th fret same progression)

Intro

Chorus w\ improv



Any corrections please let me know, Chris (egidda@yahoo.com)

Compiled with TabPlayer :: http://www.simoneperandini.com/tabplayer.htm

Comments