Govt Mule - Painted Silver Light Chords & Tabs

 

Painted Silver Light Chords & Tabs

Govt Mule Chords & Tabs

Version: 1 Type: Tab 0 ratings
1 star 2 stars 3 stars 4 stars 5 stars
comments

Painted Silver Light Tab

   
#----------------------------------PLEASE NOTE--------------------------------#
#This file is the author's own work and represents their interpretation of the#
#song. You may only use this file for private study, scholarship, or research.#
#-----------------------------------------------------------------------------#

From: charlesb@fesi.com
Date: Wed, 20 May 1998 12:58:06 -0600
Subject: g/govt_mule/painted_silver_light.tab

                          PAINTED SILVER LIGHT
                              BY GOV'T MULE

                            
                             TRANSCRIBED BY
                              CHARLIE BYRD
                          
                           with a little help 
                             from my friends
                               (at eMULE)

   
  
 INTRO

  
   RIFF 1
 (WITH DISTORTION)

    D                              F   D
E|------------------------------------------------------------------------|   
B|--7--------------7-------------------7--------------7-------------------|
G|--7---7----------7---7---------------7---7----------7-------------------|
D|--7---7h9p7--6---7---7h9p7--6---10---7---7h9p7--6---7-------------------|
A|--5---5------5---5---5------5----8---5---5------5---5-------------------| 
E|------------------------------------------------------------------------|



    D                              F   D              Cmaj7
E|------------------------------------------------------------------------|
B|--7--------------7-------------------7--------------0-------------------|
G|--7---7----------7---7---------------7---7----------0-------------------| 
D|--7---7h9p7--6---7---7h9p7--6---10---7---7h9p7--6---2-------------------| 
A|--5---5------5---5---5------5----8---5---5------5---3-------------------|
E|------------------------------------------------------------------------|
                                                               (end RIFF 1)



  
   RIFF 2
    
    E                                                                F
E|------------------------------------------------------------------------|
B|------------------------------------------------------------------------|
G|------------------------------------------------------------------------|
D|--2b3r2---0-----------2b3r2---0-----------2b3r2---0-------0--------3----|
A|--------------3---0---------------3---0---------------3------------3----| 
E|-------------------------------------------------------------------1----|
                                                               (end RIFF 2)




   

[ Tab from: http://www.guitartabs.cc/tabs/g/govt_mule/painted_silver_light_tab.html ]
  
      A                                                       G
E|------------------------------------------------------------------------|
B|------------------------------------------------------------------------|
G|------------------------------------------------------------------------|
D|--5/7---5/7--7--7-----------------5/7---5/7--7--7---------3/5---3/5-----|     
A|--5/7---5/7--7--7-----------------5/7---5/7--7--7---------3/5---3/5-----|     
E|--3/5---3/5--5--5-----------------3/5---3/5--5--5---------1/3---1/3-----|




                    A#   F          A                         
E|------------------------------------------------------------------------|
B|------------------------------------------------------------------------|
G|------------------------------------------------------------------------|
D|--5--5-------3/5---8---3--------5/7---5/7--7--7-----------5/7---5/7-----|
A|--5--5-------3/5---8---3--------5/7---5/7--7--7-----------5/7---5/7-----|
E|--3--3-------1/3---6---1--------3/5---3/5--5--5-----------3/5---3/5-----|




   
                G    A#    C
E|------------------------------------------------------------------------|
B|------------------------------------------------------------------------|
G|------------------------------------------------------------------------|
D|--7--7--------5----8----10----------------------------------------------|
A|--7--7--------5----8----10----------------------------------------------|
E|--5--5--------3----6-----8----------------------------------------------|
                                                               (end RIFF 3)


  
    VERSE 2 (WITH RHYTHM FIGURE 1)

    
    CHORUS (PLAY CHORUS TWICE)


   

   RIFF 4 (PLAY THIS IMMEDIATELY AFTER CHORUS)

     C        D         F         D     
E|------------------------------------------------------------------------|
B|------------------------------------------------------------------------|
G|---5--5-----7--7-----10--10-----7---------------------------------------|
D|---5--5-----7--7-----10--10-----7---------------------------------------|
A|---3--3-----5--5------8---8-----5---------------------------------------|
E|------------------------------------------------------------------------|
                                                               (end RIFF 4)


    (AFTER RIFF 4 GO IMMEDIATELY BACK INTO RIFF 1 AND THEN TO RIFF 2)


   VERSE 3 (WITH RHYTHM FIGURE 1)


   CHORUS (PLAY CHORUS TWICE)

   
   LEAD GUITAR SOLO (RHYTHM GUITAR WITH RIFF 3)




 

 



                  
Comments