Govt Mule - Mule Chords & Tabs

 

Mule Chords & Tabs

Govt Mule Chords & Tabs

Version: 1 Type: Tab 0 ratings
1 star 2 stars 3 stars 4 stars 5 stars
comments

Mule Tab

   
             G
            MULE                      riff to start verse 1

E|--||-------------------|----------------------|----------------------
B|--||-------------------|----------------------|----6~----------------
G|--||-0-3/5\3--3-3-3--0-|-0-3/5\3--3-3-3-3-3-0-|-/7----3-3-3--3-2-1-0-
D|--||-0-3/5\3--3-3-3--0-|-0-3/5\3--3-3-3-3-3-0-|-------3-3-3--3-2-1-0-
A|--||-------------------|----------------------|----------------------
E|--||-------------------|----------------------|----------------------
           play first 2 measures 4 times


  chord during verse

E|-----||----------------|-----------------|----------------|--------||-
B|-----||----------------|-----------------|----------------|--------||-
G|-----||-3-3-3----3-3-3-|-3-3-3--3-3-3-0--|-3-3-3---3-2-1--|--------||-
D|-4~--||-3-3-3----3-3-3-|-3-3-3--3-3-3-0--|-3-3-3---3-2-1--|--------||-
A|-4~--||----------------|-----------------|----------------|--------||-
E|-----||----------------|-----------------|----------------|--------||-



wheres my mule.....[chorus] play 3 times 4th time second verse with this slide lick as fill
[ Tab from: http://www.guitartabs.cc/tabs/g/govt_mule/mule_tab.html ]
E|----------------------------|---------------------|--------------|---
B|----------------------------|---------------------|--------------|
G|--/12-12-12---7-9-12-9-7-9~-|-11-11-11--12-12-12--|-/3\2\0/-12~--|---
D|--/12-12-12---7-9-12-9-7-9~-|-11-11-11--12-12-12--|-/3\2\0/-12~--|---
A|----------------------------|---------------------|--------------|---
E|----------------------------|---------------------|--------------|---



  bridge  Eb               play 2 times   changes to 'Eb' for solo

E|-----||-------------------|----------------------|--------9-9-9---6-6-
B|-----||-------------------|----------------------|-7-7-7--9-9-9---6-6-
G|-----||-------------------|----------------------|-6-6-6--------------
D|-----||-------4-3---------|----------------------|-5-5-5--------------
A|-----||-6-x-x-----x-x-4-6~|-1-x-x-4-3------1-----|-6-6-6--------------
E|-----||-------------------|------------4-4---2b3-|--------------------




E|-6-|----||----------
B|-6-|----||----------
G|---|----||----------
D|---|----||----------
A|---|----||----------
E|---|----||---------- bridge solo in Eb min pentatonic

E|------------------------------------------------------------
B|------------------------------------------------------------
G|-12--12--12----13--13--13-----------------------------------
D|-12--12--12----13--13--13-----------------------------------
A|------------------------------------------------------------
E|------------------------------------------------------------
solo then moves to Em


Comments