Govt Mule - Fallen Down Chords & Tabs

 

Fallen Down Chords & Tabs

Govt Mule Chords & Tabs

Version: 1 Type: Tab 0 ratings
1 star 2 stars 3 stars 4 stars 5 stars
comments

Fallen Down Tab

   
#----------------------------------PLEASE NOTE---------------------------------#
#This file is the author's own work and represents their interpretation of the #
#song. You may only use this file for private study, scholarship, or research. #
#------------------------------------------------------------------------------##
 Fallen Down
 
                                 by Govt Mule


transcribed by Peter Riedman


standard tuning 



Chord Chart

Bm/F#   C/G   G   A    D   Em   Am   C9   B7#9   B    C    E
--2------3----3---0----2---0-----0----0----------2----0----0----
--3------1----3---2----3---0-----1----3----3-----4----1----5----
--4------0----0---2----2---0-----2----0----2-----4----0----4----
--4------2----0---2----0---2-----2----2----1-----4----2----0----
--2------3----2---0--------2-----0----3----2-----2----3---------
--2------0----3------------0---------------0----------0---------





Intro
-------------------------------------------------------------------------
---8---7---8---7--------8---7---8---7-------8---7---8---7--------7-\-5---
---9---7---9---7--------9---7---9---7-------9---7---9---7----------------
---7---7---7---7--------7---7---7---7-------7---7---7---7----5-/-7-\-5---
-------------------------------------------------------------------------
-------------------------------------------------------------------------



(SOLO)

----------------------------------------------------12---------------------
-----------------------------------------15--------------------------------
--------------------------12--14(BEND1)-14(1)--14~------14(1)-14-h-12------
-----------------12--14------------------------------------------------14~-
---/12---12--14------------------------------------------------------------
---------------------------------------------------------------------------



--------------------------------------------------------------------
--------------------------------------------------------------------
-11-12-11~---11-12-14------------------12--------12--14(1)--12--14~-
----------------------11~----11-12-14-----14~-----------------------
--------------------------------------------------------------------
--------------------------------------------------------------------


[ Tab from: http://www.guitartabs.cc/tabs/g/govt_mule/fallen_down_tab.html ]
------------------------------------------------------------------------------
----------------------------------12---------------12-15-------12-15--15(1)~--
--14(1)-14-h-12---14(1)-14-h-12------14(1)--14(1)--------14(1)----------------
------------------------------------------------------------------------------
------------------------------------------------------------------------------
------------------------------------------------------------------------------



--------------------------------12--------------------------------
---15(1)-15(1)---12--14(1)~---------------------------------------
------------------------------------14(1)-14-h-12-------11-12-14~-
---------------------------------------------------14~------------
------------------------------------------------------------------
------------------------------------------------------------------



----------------------14-14(1)--12--------------17-17---17(1)-17(1)~-
---15(1)---15-15(1)~----------------15(1)~----17(1)-----17(1)-17(1)~-
---------------------------------------------------------------------
---------------------------------------------------------------------
---------------------------------------------------------------------
---------------------------------------------------------------------


             fallen down-- fallen down



----------------------14-14(1)--12----------
---15(1)---15-15(1)~----------------15(1)~--
--------------------------------------------
--------------------------------------------
--------------------------------------------
--------------------------------------------


    E

----0---------------10-/-12-\-10-----
----5----5----------10-/-12-\-10-----
----4-------4------------------------
-------------------------------------
-------------------------------------
-------------------------------------


PIANO SOLO  (play riff 4 times)
------------------------------------------------------------------------------
---8---7---8---7--------8---7---8---7-------8---7---8---7-------8---7---8---7-
---9---7---9---7--------9---7---9---7-------9---7---9---7-------9---7---9---7-
---7---7---7---7--------7---7---7---7-------7---7---7---7-------7---7---7---7-
------------------------------------------------------------------------------
------------------------------------------------------------------------------
Comments