Gouryella - Gouryella Chords & Tabs

 

Gouryella Chords & Tabs

Gouryella Chords & Tabs

Version: 2 Type: Bass Tab 0 ratings
1 star 2 stars 3 stars 4 stars 5 stars
comments

Gouryella Bass Tab

Song: gouryella
Band: gouryella
Album: ?
tabbed by: nadja (fantomas@btinternet.co.uk)


ok, here's all the different bits for bass.

this is the bass bit in the background. you'll need a five string, 
but you can just play the first bit an octave higher if you only 
have four.

G:---------------------------------------------------------------
D:-----------------------------------------------------3-3----3-3
A:---3-3---3-3---3-3---3-3---3-3---3-3---3-3---3-3---------------
E:---------------------------------------------------1------1----
B:-1-----1-----1-----1-----1-----1-----1-----1-------------------

G:---------------------------------------------------------------
D:---3-3---3-3---3-3---3-3----3-3----3-3-----7-7---7-7---7-7-----
A:---------------------------------------------------------------
E:-1-----1-----1-----1------1------1------5------5-----5---------
B:---------------------------------------------------------------

G:---------------------------------------------------------------
D:---7-7---7-7---7-7---7-7---7-7----5-5---5-5----5-5----5-5------
A:---------------------------------------------------------------
E:-5-----5-----5-----5-----5------3-----3------3------3----------
B:---------------------------------------------------------------
[ Tab from: http://www.guitartabs.cc/tabs/g/gouryella/gouryella_btab_ver_2.html ]
G:---------------------------------------------------------------
D:---3-3---3-3---3-3---3-3---------------------------------------
A:---------------------------------------------------------------
E:-1-----1-----1-----1-------------------------------------------
B:---------------------------------------------------------------

ok, now there,s a slower melody on top of this in places, if you 
pick this slowly, you'll see which part it is.

G:--------------------9----------9-------------------------------
D:---------9---9--10------9--10------9--10-----------------------
A:-7--10------------------------------------10-------------------
E:---------------------------------------------------------------

right, now this is the fast mellody that the tune is bassed around.

G:---------------------------------------------------------------
D:----------------------------9-9-9-9-9---------10-10--9-9-9-9-9-
A:-7-7-7-7--7-10-10-10-10--10------------10-10-------------------
E:---------------------------------------------------------------

G:------------------9-9-9-9-9---------7-7------------------------
D:-10-10-10-10-10-------------10-10--------9-9-9-9-9-10-10-10-10-
A:---------------------------------------------------------------
E:---------------------------------------------------------------


G:-----9-9-9-9-9----------7-7------------------------------------
D:-10-------------10-10--------9-9-9-9-9-10-10-10-10-10----------
A:-------------------------------------------------------10-10-10
E:---------------------------------------------------------------


G:---------------------------------------------------------------
D:--------7-7----------------------------------------------------
A:-10-10-------10-10---------------------------------------------
E:---------------------------------------------------------------

ok dudes, if anyone else has any trance songs transcribed please email me.
Comments