G?tz Robert - Jenseits Des Tales Chords & Tabs

 

Jenseits Des Tales Chords & Tabs

G?tz Robert Chords & Tabs

Version: 1 Type: Tab 0 ratings
1 star 2 stars 3 stars 4 stars 5 stars
comments

Jenseits Des Tales Tab

   
                               JENSEITS DES TALES

Words by Börris von Münchhausen

Music by Robert Götz

           A                    D                   F#                    B
      0 0 2 2 2 0          0 0 0 2 3 2          2 4 4 3 2 2          x 2 4 4 4 2

          A7                   D7                    G                    E
      x 0 2 2 2 3          x x 0 2 1 2          3 2 0 0 0 3          0 2 2 1 0 0

    A          D           F#            B
 2/2
  Gtr I
|------------|-----------|-------------|-----------|
|------------|-----------|-------------|-----------|
|------------|-----------|-------------|-----------|
|------------|-0----0----|-3---2-0--2--|-3----0----|
|---0--0--0--|-----------|-------------|-----------|
|------------|-----------|-------------|-----------|

[ Tab from: http://www.guitartabs.cc/tabs/g/gotz_robert/jenseits_des_tales_tab.html ]
  A    A7      D    F#     A7            D
|------------|-----------|-------------|-----------|
|------------|-----------|-------------|-----------|
|------------|-----------|-------------|-----------|
|------------|-0----3----|-2---0-2--3--|-0---------|
|---0--0--0--|-----------|-------------|-----------|
|------------|-----------|-------------|-----------|


    D7   G       D           G             D
||-------------|-----------|-------------|-----------|
||o---------0--|-----------|-0---3-2--0--|-----------|
||-------0-----|-2---------|-------------|-2---------|
||----3--------|------3----|-------------|------3----|
||o------------|-----------|-------------|-----------|
||-------------|-----------|-------------|-----------|


  F#           B             E      A7   D
|------------|-------------|-----------|------------||
|------------|-------------|-----------|-----------o||
|---2--2--2--|----------2--|-0------0--|------------||
|------------|-3---3-3-----|-----------|-3----------||
|------------|-------------|-----------|-----------o||
|------------|-------------|-----------|------------||
Comments