Gotye - Thanks For Your Time Chords & Tabs

 

Thanks For Your Time Chords & Tabs

Gotye Chords & Tabs

Version: 1 Type: Bass Tab 0 ratings
1 star 2 stars 3 stars 4 stars 5 stars
comments

Thanks For Your Time Bass Tab

Tabbed by: T-Roland
Email: 5stringbassline@gmail.com


G|------------------------|----------------------------|
D|--------8---------------|----------------------------|
A|-------------9--------6-|--8--8--8-6------------6--8-|
E|---6--------------------|------------9-8-6-----------|

             
G|------------------------|----------------------------|
D|-------8----------------|----------------------------|
A|------------9--------6--|--8--8--8-6-----------------|
E|--6---------------------|------------9-8-6-----------|


ALTERNATIVE POSITION:
[ Tab from: http://www.guitartabs.cc/tabs/g/gotye/thanks_for_your_time_btab.html ]
G|--------3---------------|----------------------------|
D|-------------4--------1-|--3--3--3-1------------1--3-|
A|---1--------------------|------------4-3-1-----------|
E|------------------------|----------------------------|

      
G|-------3---------------|----------------------------|
D|------------4--------1-|--3--3--3-1-----------------|
A|--1--------------------|------------4-3-1-----------|
E|-----------------------|----------------------------|

This is a great little thing, and the whole song basically follows 
this one figure. You will want to mute the notes quickly after playing 
them to achieve that electronic staccato feel  For the same reason, 
I prefer playing this song from a starting position on the E string's 
6th fret - but how and where it sounds the best will depend on your 
bass. Also, try to avoid using a plectrum, as it most likely will ruin 
the feel.
Comments