Gotye - I Feel Better Chords & Tabs

 

I Feel Better Chords & Tabs

Gotye Chords & Tabs

Version: 1 Type: Bass Tab 0 ratings
1 star 2 stars 3 stars 4 stars 5 stars
comments

I Feel Better Bass Tab

Song: I Feel Better
Album: Making Mirros
Band: Gotye
Bassist: Lucas Taranto

Watch me play this song!
http://www.youtube.com/watch?v=qi4YT3tBfVE&feature=youtu.be


Techniques: 
h - Hammer on
\ - Slide out

VERSE
G||--------------------------|---------------------|
D||--------------------------|---------------------|
A||--7-----7-----7-----5--5--|---------7--------5--|
E||-----------------7--------|---------------------|

--------------------------|--------------------------|
--------------------7--9--|--------------------------|
-----------------7--------|----------7h9-----7-------|
--5-----5-----------------|---------------7-------7--|

--------------------------|-----------------------|
--------------------------|-----------------------|
--7-----7-----7-----5--5--|-----------------------|
-----------------7--------|-----0--3--0--------7--|

--------------------------|-----------------------|
--------------------------|-----------------------|
--------------------------|---------9--9----9\----|
--5-----5-----5--4--3--2--|-----------------------|

----------------------|-----------------------|
----------------------|-----------------------|
----------------------|------------3--6-------|
--7------7--7------4--|---------4----------4--|

-----------------------|------------------------|
-----------------------|------------------------|
--4-----4--4--4--------|------------------------|
-----------------7--5--|---------5--5--5--4--5--|
  
--------------------------|----------------------|
--9--7--6-----------------|-------------9--------|
-----------9--7-----------|----------------------|
-----------------4--5--7--|-----------7----------|

CHORUS
--------------------------|--------------------------|
--------------------------|--------------------------|
--------------------------|--------------------------|
--0-----0--0--0--0--0--0--|--------0--0--0--0--0--0--|
     
--------------------------|-----------------------|
--------------------7-----|-----7-----------------|
-----------------------5--|--------5--7-----------|
--------0--0--0--0--------|-----------------------|

--------------------------|--------------------------|
--------------------------|--------------------------|
--------------------------|--------------------------|
--0-----0--0--0--0--0--0--|--------0--0--0--0--0--0--|
 
--------------11-------------|-------------------------------|
-----------9------11---------|------------------------14\----|
----------------------9------|-------------------------------|
--------0----------------10--|-----10--10--12-----12---------|
[ Tab from: http://www.guitartabs.cc/tabs/g/gotye/i_feel_better_btab.html ]
--------------------------|---------------------------|
--------------------------|---------------------------|
--7\------------------12\-|-----------------------14\-|
-------0--0--0--0--0------|--------0--0--0--0--0------|
     
-------------------------|-----------------------|
-------------------7-----|-----------------------|
----------------------5--|-----5--5--7-----------|
-------0--0--0--0--------|-----------------------|

--------------------------|--------------------------|
--------------------------|--------------------------|
--------------------------|--------------------------|
--0-----0--0--0--0--0--0--|--------0--0--0--0--0--0--|
      
--------------11-------------|--------------------------|--------|
-----------9------11---------|--------------------------|--------|
----------------------9------|--------------------------|--------|
--------0----------------10--|-----10--10--12-----------|--9-----| 

BRIDGE - Noting

CHORUS

OUTRO
------------9-----------|--------------------------|
---------7--------------|-----------9--9--------7--|
--5---------------------|--------------------------|
------------------------|--------------------------|
  
--------------------11-----|--------------------------|
--7--------------9------9--|--------------------------|
---------------------------|--7--------5--7--7--7--7--|
---------------------------|--------------------------|
 
------------9-----------|--------------------------|
---------7--------------|--------------------------|
--5---------------------|-----------7--7--------5--|
------------------------|--------------------------|

--------------------------|----------------------|
--------------------------|-------------------7--|
--5--------------------5--|--5------7--7---------|
--------------------------|----------------------|

--7-------------------|-----------------------7--|
---------7------------|-----------9--9-----------|
------------7---------|--------------------------|
----------------------|--------------------------|

--7--------9--9-----------|------------------------|
-----------------------6--|-----4------------------|
--------------------------|---------------7--7--7--|
--------------------------|------------------------|

------------9-----------|--------------------------|
---------7--------------|-----------9--9-----------|
--5---------------------|-----------------------5--|
------------------------|--------------------------|
               
-----------9-9-9\--------|---------------------||
-------------------------|---------------------||
--5-------------------5--|--5------7--7--------||
-------------------------|---------------------||

Comments