Gotthard - Father Is That Enough Chords & Tabs

 

Father Is That Enough Chords & Tabs

Gotthard Chords & Tabs

Version: 1 Type: Chords 0 ratings
1 star 2 stars 3 stars 4 stars 5 stars
comments

Father Is That Enough Chords

   
From: Stefan Iburg
E-mail: iburg@surfeu.de
Song: FATHER IS THAT ENOUGH
Artist: GOTTHARD (Album: G. / BMG Ariola)


This is my version of one of the most famous songs of
Switzerland´s no. 1 rockband.
The lyrics are directly from Gotthard´s homepage and the chords
are my own interpretation.
They sound OK and seem to be the correct ones. Let´s rock...
For comments, corrections or questions feel free to email me:
iburg@surfeu.de


Chords used:

D      (XX0232)
D/F#   (2X0232)
G      (320003)
A      (X03330)
C      (X32010)


For the intro play the following:

[ Tab from: http://www.guitartabs.cc/tabs/g/gotthard/father_is_that_enough_crd.html ]
  
   D                       D/F#                    G
E-----------0--2--------------------2-----------------------3-----------------
H--------3--------3--------------3-----3-----------------------0--------------
G-----2--------------2--------2-----------2-----------------------0-----------
D--0-----------------------------------------0-----------0-----------0--------
A-----------------------------------------------------2-----------------------
E-----------------------0--2--------------------2--3--------------------------



   A                       D                       D/F#    
E--------------------0--------------0--2--------------------2-----------------
H-----3-----4-----------4--------3--------3--------------3-----3--------------
G--------3-----3--------------2--------------2--------2-----------2-----------
D-----------------3--------0-----------------------------------------0--------
A--0--------------------------------------------------------------------------
E-----------------------------------------------0--2--------------------------



      G                    A
E--------------3-----------------------4--------------------------------------
H-----------------0--------------3--------------------------------------------
G--------------------0--------------3-----------------------------------------
D-----------0-----------0-----3-----------------------------------------------
A--------2-----------------0--------------------------------------------------
E--2--3-----------------------------------------------------------------------
Comments