Gorkys Zygotic Mynci - Wrong Turnings Chords & Tabs

 

Wrong Turnings Chords & Tabs

Gorkys Zygotic Mynci Chords & Tabs

Version: 1 Type: Tab 0 ratings
1 star 2 stars 3 stars 4 stars 5 stars
comments

Wrong Turnings Tab

   
artist: Gorky's Zygotic Mynci
title: Wrong Turnings
album: The Blue Trees

This song is quite an intricate thing, and i've not yet finished 
tabbing it out, as i'm a bit stuck, but the majority is done. note 
that my transcription is far from accurate in the more complex 
picking parts of the song, and i haven't indicated any kind of time
signature or note lengths (mainly because i'm not that great a 
musician).my tab is open to interpretation by anyone interested and 
i'd appreciae any correctionsor comments at my e-mail address, 
groodies86@yahoo.co.uk

open-G tuning (6th to 1st string): D-G-D-G-B-D

s= SLIDE h= HAMMER-ON ]= GROUPS ANY PARTICULAR PHRASE OR THEME, 
USUALLY TO INDICATE
A REPETITION.

d-----9-10-9-------9-10-9------9-10-9--12-----10-----7-5S>9---]----]
B-------------------------------------------------------------]----]
d---0------------0-----------0-------------0------0-----------]----]
D--0------------0-----------0-------------0-0----0-0----------]--X2]
G-0------------0-----------0------------0-----0------0--------]----]
D-------------------------------------------------------------]----]
							 	   ]	X2
d-----9-10-9--7-5-2---2-5--]---------------------------------------]
B-------------------1------]---------------------------------------]
G---0----------------------]---------------------------------------]
D--0-----------------------]--X2-----------------------------------]
G-0------------------------]---------------------------------------]
D--------------------------]---------------------------------------]

d------------------------------]-----
B-6-----5----3--1--0-1-3-s-6---]-----
G----0----0--------------------]-----
D---0-0--0-0---0-0-------------]--X2-
G-0-----0----0-----------------]-----
D------------------------------]-----

d---------------------------]-----
B-0-----0---3---1-----------]-----
G----0----0---0---0-----0---]-----
D---0-0------------0-0h2-2--]--X4-
G-0-----0---0---0-----------]-----
D---------------------------]-----

d--------------------
B--0---0---0---0-----
G----0---0---0---0---  
D--------------------
G--0---0---0---0-----
D--------------------
[ Tab from: http://www.guitartabs.cc/tabs/g/gorkys_zygotic_mynci/wrong_turnings_tab.html ]
d--------------------------------------------------------------]------
B-------0------------0-------------0-------------0-------------]------
G---0-----0------0-----0-------0-----0-------0-----0-----------]------
D-4---4----4---3---3-----3---2---2-----2---1---1-----1--7-4----]---X 2
G-0---0--------0---0---------0---0---------0---0----------0----]------
D--------------------------------------------------------------]------

d---------------------------------------------------------------------
B--0-------------0--------------0-----------------------0--LET RING---
G------0-----0-------0-----0--------0-----0-------0-----0-----&-------
D----0---0h2---2---0---0h2---2----0---0h2---2-0h2---2--------REST-----
G--0-------------0--------------0-----------------------0-------------
D---------------------------------------------------------------------

TRANSCRIPTION OF PIANO

d--12---14---9-...--12---14---9---9--7-5---7--7--9--7--5--2------5---
B-----------------------------------------------------------3--5-----
G--------------------------------------------------------------------
D--------------------------------------------------------------------
G--------------------------------------------------------------------
D--------------------------------------------------------------------

d---9-7-5-7---7--9--7--5--2------------
B---------------------------3--5-------
G--------------------------------------
D--------------------------------------
G--------------------------------------
D--------------------------------------

Guitar embellishment

d--5-----------------------------------
B--------0-----0---0-----0-----0-------
G------0---0-----0-----0---0-----0-----
D----0-------0-------0-------0---------
G--0---------------0-------------------
D--------------------------------------

d--12-----------14---9------------------12-----------14---9----------
B---------0-----------------0-------0----------0----------------0----
G-------0---0-------------0---0-------0------0---0------------0---0--
D-----0-------0----0----0-------0----------0-------0----0---0--------
G--0------------0----0------------0-----0------------0----0----------
D--------------------------------------------------------------------

d--9--7--5----5h7------7--7h9--7--5--2-------5------------]----------
B--------------------------------------3--5---------0-----]----------
G-------------------0-----------------------------0---0---]----------
D-----------------0-----------------------------0---------]---X2-----
G--------------0-----------------------------0------------]----------
D---------------------------------------------------------]----------

ther you have it; again sorry it's not complete and it's not exactly accurate,
but it gives an idea, and is always open to interpretation,.

Comments