Gorki - Mia Chords & Tabs

 

Mia Chords & Tabs

Gorki Chords & Tabs

Version: 1 Type: Tab 0 ratings
1 star 2 stars 3 stars 4 stars 5 stars
comments

Mia Tab

   
Artist: Gorki
Song : Mia
Written by Luc de Vos
Tabbed by Wim Hermans
Standard tuning

Played clean

 
fig 1 (intro + verses)


   Am                   G  C
E |------------0-----------0---------
B |1-----1--3-----3--1--3--1-----1---
G |---2-----2-----2--2--0-----0-----0
D |----------------------------------
A |0--------------------2--3---------
E |----------------------------------


   Am                   G  C
E |------------0---------------------
B |1-----1--3-----3--1--3--1-----1---
G |---2-----2-----2--2--0--0--0-----0
D |----------------------------------
A |0--------------------2--3---------
E |----------------------------------



fig 2 (chorus)
               
    
    F                    G  C
 E |---------1--------------0--------- 
 B |------1-----1-----1--3--1-----1---
 G |---2-----------2-----0-----0-----0
 D |3---------------------------------
 A |---------------------2--3---------
 E |----------------------------------
[ Tab from: http://www.guitartabs.cc/tabs/g/gorki/mia_tab.html ]
    F                    G  C
 E |---------1------------------------ 
 B |------1-----1-----1--3--1-----1---
 G |---2-----------2-----0--0--0-----0
 D |3---------------------------------
 A |---------------------2--3---------
 E |----------------------------------

This is all my own work.
Mail any corrections or suggestions to wimhermans2@hotmail.com

Toen ik honger had
Kwam ik naar je toe
Je zei: eten kan
Als je de afwas doet
Mensen als jij moeten niet moeilijk doen
Geef ze een kans voor ze stom gaan doen

De middenstand regeert het land
Beter dan ooit tevoren
Mia heeft het licht gezien
ze zegt: niemand gaat verloren

Sterren komen, sterren gaan
Alleen Elvis blijft bestaan
Mia heeft nooit afgezien
Ze vraagt: kun jij nog dromen

Voorlopig gaan we nog even door
Op het lichtend pad
Het verkeerde spoor
Mensen als ik vind je overal
Op de arbeidsmarkt
 In dit tranendal

Sterren komen, sterren gaan
Alleen Elvis blijft bestaan
Mia heeft nooit afgezien
Ze vraagt: kun jij nog dromen

De middenstand regeert het land
Beter dan ooit tevoren
Mia heeft het licht gezien
Ze zegt: niemand gaat verloren

Sterren komen, sterren gaan
Alleen Elvis blijft bestaan
Mia heeft nooit afgezien
Ze vraagt: kun jij nog dromen

pianosolo

Sterren komen, sterren gaan
Alleen Elvis blijft bestaan
Mia heeft nooit afgezien
Ze vraagt: kun jij nog dromen.

pianosolo
Comments