Gorki - Mia Chords & Tabs

 

Mia Chords & Tabs

Gorki Chords & Tabs

Version: 2 Type: Bass Tab 0 ratings
1 star 2 stars 3 stars 4 stars 5 stars
comments

Mia Bass Tab

Intro
G|-----------|
D|-----------|
A|--------3--|x7 
E|-5----3----|

Verse
G|-----------|
D|-----------|
A|-3------3--|
E|--5----3---|

G|-----------|
D|-----------|
A|--------3--|x3 
E|-5----3----|
[ Tab from: http://www.guitartabs.cc/tabs/g/gorki/mia_btab_ver_2.html ]
Chorus
G|-----------|
D|-----------|
A|--------3--|x4
E|-1----3----|

soms speelt hij: 
G|---------------|
D|---------------|
A|------------3--|
E|-3-2-1----3----|

Outro
G|-----------|
D|-----------|
A|--------3--|xherhaal zo lang als nodig 
E|-5----3----|


Peace en amuseerdudermee!!

Opmerkingen/voorstellen: de_meester_ellen@hotmail.com
Comments