Gorki - Lieve Kleine Piranha Chords & Tabs

 

Lieve Kleine Piranha Chords & Tabs

Gorki Chords & Tabs

Version: 1 Type: Bass Tab 0 ratings
1 star 2 stars 3 stars 4 stars 5 stars
comments

Lieve Kleine Piranha Bass Tab

   
De tab die al op internet staat, staat mij niet echt aan dus heb ik het lot maar zelf in
eigen handen genomen. 

Intro
G|----------------------------------|------------------------------------|
D|----------------------------------|------------------------------------|
A|-12--12--10-11-12-5-5-5-5-5-5-5-5-|-12--12--10-11-12-5-5-7-7-9-9-10-10-|
E|----------------------------------|------------------------------------|

G|----------------------------------|--------------------------------|
D|----------------------------------|--------------------------------|
A|-12--12--10-11-12-5-5-5-5-5-5-5-5-|-12--12--10-11-12-5-5-5-5-5-5-5-|
E|----------------------------------|--------------------------------|

G|-----------------|
D|-----------------|
A|-5-5-5-5-5-5-5-5-|
E|-----------------|

Verse
G|-------------------------------------------------------------------------|
D|-------------------------------------------------12-12-12-12-12-12-12-12-|
A|-12-12-12-12-12-12-12-12-10-10-10-10-10-10-10-10-------------------------|
E|-------------------------------------------------------------------------|

G|---------------------------------------------------------------|
D|---------------------------------------------------------------|
A|-12-12-12-12-12-12-12-12-7-9-10-10-10-10-10-10-7-7-7-7-7-7-7-7-|
E|---------------------------------------------------------------|

G|-------------------------------------------------------------------------|
D|-12-10-------------------------------------------12-12-12-12-12-12-12-12-|
A|-------12-12-12-12-12-12-10-10-10-10-10-10-10-10-------------------------|
E|-------------------------------------------------------------------------|

G|---------------------------------------------------------------|
D|---------------------------------------------------------------|
A|-12-12-12-12-12-12-12-12-7-9-10-10-10-10-10-10-7-7-7-7-7-7-7-7-|
E|---------------------------------------------------------------|

Chorus
G|----------------------------------|------------------------------------|
D|----------------------------------|------------------------------------|
A|-12--12--10-11-12-5-5-5-5-5-5-5-5-|-12--12--10-11-12-5-5-7-7-9-9-10-10-|
E|----------------------------------|------------------------------------|

G|----------------------------------|----------------------------------|
D|----------------------------------|----------------------------------|
A|-12--12--10-11-12-5-5-5-5-5-5-5-5-|-12--12--10-11-12-5-5-5-5-5-5-5-5-|
E|----------------------------------|----------------------------------|

Verse
G|-------------------------------------------------------------------------|
D|-------------------------------------------------12-12-12-12-12-12-12-12-|
A|-12-12-12-12-12-12-12-12-10-10-10-10-10-10-10-10-------------------------|
E|-------------------------------------------------------------------------|

G|---------------------------------------------------------------|
D|---------------------------------------------------------------|
A|-12-12-12-12-12-12-12-12-7-9-10-10-10-10-10-10-7-7-7-7-7-7-7-7-|
E|---------------------------------------------------------------|

G|-------------------------------------------------------------------------|
D|-12-10-------------------------------------------12-12-12-12-12-12-12-12-|
A|-------12-12-12-12-12-12-10-10-10-10-10-10-10-10-------------------------|
E|-------------------------------------------------------------------------|

G|---------------------------------------------------------------|
D|---------------------------------------------------------------|
A|-12-12-12-12-12-12-12-12-7-9-10-10-10-10-10-10-7-7-7-7-7-7-7-7-|
E|---------------------------------------------------------------|

Chorus
G|----------------------------------|------------------------------------|
D|----------------------------------|------------------------------------|
A|-12--12--10-11-12-5-5-5-5-5-5-5-5-|-12--12--10-11-12-5-5-7-7-9-9-10-10-|
E|----------------------------------|------------------------------------|
[ Tab from: http://www.guitartabs.cc/tabs/g/gorki/lieve_kleine_piranha_btab.html ]
G|----------------------------------|------------------|
D|----------------------------------|------------------|
A|-12--12--10-11-12-5-5-5-5-5-5-5-5-|-12--12--10-11-12-|
E|----------------------------------|------------------|

Interlude
G|-----------------------------------------------------------------------------------------|
D|-----------------------------------------12-12-12-12-12-12-12-12-12-12-12-12-12-12-12-12-|
A|-7-7-7-7-7-7-7-7-10-10-10-10-10-10-10-10-------------------------------------------------|x3
E|-----------------------------------------------------------------------------------------|

G|-------------------------------------------------------------------------------|
D|-----------------------------------------12-12-12-12-12-12-12-12-7-7-9-9-10-10-|
A|-7-7-7-7-7-7-7-7-10-10-10-10-10-10-10-10---------------------------------------|
E|-------------------------------------------------------------------------------|


G|-----------------------------------------|--------------------------------------------|
D|-----------------------------------------|--------------------------------------------|
A|-12-12-12-12-12-12-12-12-7-7-7-7-9-7-9-7-|-12-12-12-12-12-12-12-12-12-7-7-7-7-9-7-9-7-|
E|-----------------------------------------|--------------------------------------------|

G|-----------------------------------------|----------------------------------------|
D|-----------------------------------------|----------------------------------------|
A|-12-12-12-12-12-12-12-12-7-7-7-7-9-7-9-7-|12-12-12-12-12-12-12-12-7-7-7-7-7-7-7-7-|
E|-----------------------------------------|----------------------------------------|

G|---------------------------------|
D|---------------------------------|
A|-5-5-5-5-5-5-5-5-5-5-5-5-5-5-5-5-|
E|---------------------------------|


G|-----------------------------------------|--------------------------------------------|
D|-----------------------------------------|--------------------------------------------|
A|-12-12-12-12-12-12-12-12-7-7-7-7-9-7-9-7-|-12-12-12-12-12-12-12-12-12-7-7-7-7-9-7-9-7-|
E|-----------------------------------------|--------------------------------------------|

G|-----------------------------------------|--------------------------------------------|----|
D|-----------------------------------------|--------------------------------------------|----|
A|-12-12-12-12-12-12-12-12-7-7-7-7-9-7-9-7-|-12-12-12-12-12-12-12-12-12-7-7-7-7-7-7-7-7-|-5~-|
E|-----------------------------------------|--------------------------------------------|----|

G|-------------------------------------------------|
D|-------------------------------------------------|
A|-12-12-12-12-12-12-12-12-12-12-12-12-12-12-12-12-|
E|-------------------------------------------------|

Chorus
G|----------------------------------|------------------------------------|
D|----------------------------------|------------------------------------|
A|-12--12--10-11-12-5-5-5-5-5-5-5-5-|-12--12--10-11-12-5-5-7-7-9-9-10-10-|
E|----------------------------------|------------------------------------|

G|----------------------------------|----------------------------------|
D|----------------------------------|----------------------------------|
A|-12--12--10-11-12-5-5-5-5-5-5-5-5-|-12--12--10-11-12-5-5-5-5-5-5-5-5-|
E|----------------------------------|----------------------------------|

G|----------------------------------|------------------------------------|
D|----------------------------------|------------------------------------|
A|-12--12--10-11-12-5-5-5-5-5-5-5-5-|-12--12--10-11-12-5-5-7-7-9-9-10-10-|
E|----------------------------------|------------------------------------|

G|----------------------------------|----------------------------------|
D|----------------------------------|----------------------------------|
A|-12--12--10-11-12-5-5-5-5-5-5-5-5-|-12--12--10-11-12-5-5-5-5-5-5-5-5-|
E|----------------------------------|----------------------------------|

Outro
G|---------------------------------------|---------------------------------------|
D|---------------------------------------|---------------------------------------|
A|-12--12--10-11-12-5-5-5-17-17-17-17-17-|-12--12--10-11-12-5-5-5-17-17-17-17-17-|
E|---------------------------------------|---------------------------------------|

G|---------------------|
D|---------------------|
A|-12--12--10-11-12-5~-|
E|---------------------|

Peace en amuseerdudermee!

Vragen/opmerkingen/suggesties: de_meester_ellen@hotmail.com
Comments