Gorki - Billy Lag The Slapen Chords & Tabs

 

Billy Lag The Slapen Chords & Tabs

Gorki Chords & Tabs

Version: 1 Type: Tab 0 ratings
1 star 2 stars 3 stars 4 stars 5 stars
comments

Billy Lag The Slapen Tab

   
#----------------------------------PLEASE NOTE---------------------------------#
#This file is the author's own work and represents their interpretation of the #
#song. You may only use this file for private study, scholarship, or research. #
#------------------------------------------------------------------------------##

***************************************************************************
Billy Lag The Slapen
by Gorki
***************************************************************************

Transcribed by Soenen Martijn (martijnsoenen@hotmail.com) 20:01 29/01/2000

NOTES: Dit is een tab om dit lied op een akoestische gitaar te spelen. Gedurende
de eerste vers begeleid de bas, in de tweede verz worden barrés gebruikt met veel
distortion. Ik heb er de akkoorden bijgeplaats waarmee je het lied kan spelen op 
een akoestische gitaar zonder distortion. Begin het lied op een rustige manier, 
eindigen kan je -anyhow- toch met barré akkoorden zoals je ziet in de tab.

CHORDS used in this song:

        EADGBE

Em022000
G barré 3555xx         
F barré 1333xx  
G               320003 
F               133211

INTRO: (Zelfde noten met bas) 

    Em       G              F        Em                      G              F        Em
[ Tab from: http://www.guitartabs.cc/tabs/g/gorki/billy_lag_the_slapen_tab.html ]
E |-0--0--0--0--0--0--0--0--0--0--0--0--0--0--0--0--0--0--0--0--0--0--0--0--0--0--0--0-|
B |-5--5--5--8--8--8--8--8--6--6--6--5--5--5--5--5--5--5--5--8--8--8--8--8--6--6--6--5-|
G |------------------------------------------------------------------------------------|
D |------------------------------------------------------------------------------------|
A |------------------------------------------------------------------------------------|
E |------------------------------------------------------------------------------------|

E |--X-X-X-X-X------------------|
B |--X-X-X-X-X------------------|
G |--X-X-X-X-X------------------|
D |--X-X-X-X-X------------------|
A |--X-X-X-X-X------------------|
E |--X-X-X-X-X------------------| Herhaal deze twee (boven en naast) riffs enkele keren.
   



    Em       G              F        Em 

E |-0--0--0--0--0--0--0--0--0--0--0--0---X-X-X-X-X------------------|
B |-5--5--5--8--8--8--8--8--6--6--6--5---X-X-X-X-X------------------|
G |--------------------------------------X-X-X-X-X------------------|
D |--------------------------------------X-X-X-X-X------------------|
A |--------------------------------------X-X-X-X-X------------------| Speel dit dan een
E |--------------------------------------X-X-X-X-X------------------| stuk of 3 keer.

    Em       G              F        Em
E |----------------------------------------------|
B |----------------------------------------------|
G |----------------------------------------------|
D |-2--2--2--5--5--5--5--5--3--3--3--2-----------|
A |-2--2--2--5--5--5--5--5--3--3--3--2-----------|
E |-0--0--0--3--3--3--3--3--1--1--1--0-----------|

  

INTERLUDE:

    F  Em    G  F  Em
E |-------------------------------|
B |--6p5-5-5h8--6--5--------------|
G |-------------------------------|
D |-------------------------------|
A |-------------------------------|
E |-------------------------------| Speel dit zoveel keer je er zin in hebt.

OUTRO:

    

***************************************************************************
        More Tabs At:       http://members.fortunecity.com/dmedm/gitaar/guitar.htm
***************************************************************************
Comments