Gorki - Anja Chords & Tabs

 

Anja Chords & Tabs

Gorki Chords & Tabs

Version: 1 Type: Tab 0 ratings
1 star 2 stars 3 stars 4 stars 5 stars
comments

Anja Tab

   
----------------------------------------------------------------------------
			          ANJA - Gorki
----------------------------------------------------------------------------
Tabbed by: 911
Email: De.Clercq.Steven@pandora.be

Intro:
   F              G     C        F              G       C 
e|--------------|--------------|--------------|--------------|4
B|/10--8--------|----8---------|/10--8--------|-----5\3------|
G|--------10--9-|-7-----9--7\5-|--------10--9-|-7-------5----|
D|--------------|--------------|--------------|--------------|
A|--------------|--------------|--------------|--------------|
E|--------------|--------------|--------------|--------------|
                                                       play 2x

V1:
F              G      C
Zonder hoop en zonder eten
F              G         C
Stuurde jij me weer naar bed
F                       G      C
Want ik ben stout en de stoute kind'ren
F                 G          C
Die moeten altijd vroeg naar bed
[ Tab from: http://www.guitartabs.cc/tabs/g/gorki/anja_tab.html ]
CH:
F        G       C
Anja, de laatste dans
    F               G        C
Die moet je mij nog schenken
F        G       C
Anja, de laatste dans
    F               G        C
Die moet je mij nog schenken

V2:
En de maan schijnt door de bomen
De brave mensen gaan naar de zee
Ik zie ze rijden op hun brommers
Ze hebben lol en ik mag niet mee

CH:
Anja, de laatste dans
Die moet je me nog schenken
Anja, de laatste dans
Die moet je mij nog schenken

BR:
   F F      F F       G G     C
e|------------------|-----------------|
B|------------------|---------5-------|
G|-2-2------2-2-----|-4-4--x--5----5\-|
D|-3-3-3\---3-3-3\--|-5-5--x--5-------|
A|-3-3------3-3-----|-5-5--x--3-------|
E|-1-1------1-1-----|-3-3--x----------|
                                play 4x
CH:
Anja, de laatste dans
Die moet je me nog schenken
Anja, de laatste dans
Die moet je mij nog schenken

BR: (8x)
Ik blijf je altijd trouw
En als het donker wordt
En je niet meer weet
Waarom het ooit begon
Blijf ik je altijd trouw
Blijf ik je altijd trouw
Blijf ik je altijd trouw
Blijf ik je altijd trouw

Outro :  
  F              G       C 
e|--------------|--------------|--------------|--------------|
B|/10--8--------|--------------|/10--8--------|--------------|
G|--------10--9-|-7-9-7---5-7/9|--------10--9-|-7-9-7---5----|
D|--------------|--------------|--------------|--------------|
A|--------------|--------------|--------------|--------------|
E|--------------|--------------|--------------|--------------|
                                               repeat and fade
Comments