Gorka John - Heart Upon Demand Chords & Tabs

 

Heart Upon Demand Chords & Tabs

Gorka John Chords & Tabs

Version: 2 Type: Tab 0 ratings
1 star 2 stars 3 stars 4 stars 5 stars
comments

Heart Upon Demand Tab

   
#----------------------------------PLEASE NOTE---------------------------------#
#This file is the author's own work and represents their interpretation of the #
#song. You may only use this file for private study, scholarship, or research. #
#------------------------------------------------------------------------------##
From: Clarence Darrow 

Heart Upon Demand - John Gorka
Played with capo IV: key of E

Intro:
   C       Am7    C/A      C/G      F
                      *   H P   *                        H
E-------|-----|------|---0^1^0-|---------------------------------
B-------|-1---|--1---|--1(----1|--1---------1-----1-----1^3------
G------0|----0|-----0|-0(------|-2(-----2-------------2-2--------
D-----2-|---0-|---2--|(--------|(-----3-------3-----3------------
A--3----|2----|0-----|(--------|(--------------------------------
E-------|-----|------|3--------|1---------1-----1-------1--------

    C    Am7    C/A      C/G     F
                       *  H P   *                       *  H
E--0----|-----|------|---0^1^0-|---1-----------------------------
B--1----|--1--|--1---|--1(----1|--1(--------1-----1-------1^3----
G--0---0|----0|-----0|-0(------|-2(-----2-------------2--2(------
D-----2-|---0-|---2--|(--------|(-----3-------3-----3----(-------
A--3----|2----|0-----|(--------|(------------------------(-------
E-------|-----|------|3--------|1---------1-----1-------1(-------


          Am7    C/A      C/G      BarF            C      Am7
                                *                         
E-------|-----|------|---------|---1-----------|--------|--------
B-------|--1--|--1---|--1------|--1(--------1--|--1-----|--1-----
G------0|----0|-----0|-------0-|-2(-----2------|------0-|------0-
D-----2-|---0-|---2--|----2----|(-----3-------3|----2---|----0--
A--3----|2----|0-----|---------|(--------------|3-------|2-------
E-------|-----|------|3--------|1---------1----|--------|--------

     
      F                G                F              G
    *                                 *                 strum
E-----1------------|----------------|----1------------|-||--3----
B----1(------------|---0--------0---|---1(--------1---|-||-------
G---2(-----2---2---|-------0--------|--2(-----2-------|-||-----0-
D--(-----3---------|-----0--------0-|-(-----3-------3-|-|-----0--
A--(-------------1-|----------------|-(---------------|-|--------
E--1---------1-----|-3--------3-----|-1---------1-----|3---3-----

See chorus intro for second G measure:


Chorus:
                          Judy had that catch  in her voice....
                      F                   G           C     Am7
            H P      *                  strum        strum 
E---3--------------|----1-------------|--||---3----|---||-|--0---
B----------0^1^0---|---1(--------1----|--||--------|---||-|------
G-------2----------|--2(-----2--------|--||-------0|---||-|----0-
D-----0----0^2^0---|-(-----3-------3--|--|------0--|---|--|---0--
A------------------|-(----------------|--|---------|-3----|2-----
E-3--------------3-|-1---------1------|-3---3------|------|------

[ Tab from: http://www.guitartabs.cc/tabs/g/gorka_john/heart_upon_demand_tab_ver_2.html ]
                  
  C/A        C/G        F                 G            C    Am7
              H P      *                               strum
E----0-----|-0^1^0---|----1------------|---------3---|---||----0-
B--------0-|-1-----0-|---1(--------1---|-------0-----|---||------
G------2---|-0-------|--2(-----2-------|-----0-------|---|------
D----------|---------|-(-----3-------3-|---0--------0|---|-------
A--0-------|---------|-(---------------|-------------|-3-----2---
E----------|-3-------|-1---------1-----|-3-----3-----|-----------
                                 
                      
          C/A      C/G       F                G             
                            *                  strum        
E-----|---0-----|---0-----|----1------------|---||----3----|-----
B-----|---------|---------|---1(--------1---|---||---------|-----
G---0-|-------0-|-------0-|--2(-----2-------|---|----------|-----
D-0---|-----2---|-----2---|-(-----3-------3-|---|-------0--|-----
A-----|-0-------|---------|-(---------------|---|----------|-----
E-----|---------|-3-------|-1---------1-----|-3-----3------|-----
                                 
                                 
            
   C        Am7       C/A       C/G       F                 
                                          *                 
E---0-----|---0-----|---0-----|---0-----|----1------------|------
B---------|---------|---------|---------|---1(--------1---|------
G-------0-|-------0-|-------0-|-------0-|--2(-----2-------|------
D-----2---|-----0---|-----2---|-----2---|-(-----3-------3-|------
A-3-------|-2-------|-0-------|---------|-(---------------|------
E---------|---------|---------|-3-------|-1---------1-----|------


    
     F             G                              F          
  *                                       H P     *         
E----1----------|---0-------3---|---------------|----1-----------
B---1(-------1--|-------0-------|--0-----0^1^0--|---1(-------1---
G--2(-----2-----|-----0-------0-|------0--------|--2(-----2------
D-(-----3------3|---------------|----0---0^2^0--|-(-----3------3-
A-(-------------|---------------|---------------|-(--------------
E-1---------1---|-3-------3-----|-3-----------3-|-1---------1----
                                                                 

                                      
    G        G        C      back to intro                   
                                                            
E---------|---------|---                               
B---0-----|---0-----|---
G-------0-|-------0-|---
D-----0---|-----0---|---
A---------|---------|---
E-3-------|-3-------|---                                         
                        


----------------------------------------------------------------
* play with pick and roll action: notes shown played in order on
one beat, almost but not quite simultaneously

I used the same vertical symbols to indicate strums as I did the
chord divisions so if it doesn't say strum - don't strum. Strum
the strings shown on the indicated chord.
----------------------------------------------------------------

Please email me: Mike Harris  with transcription
errors or suggested changes. 

This is guaranteed to be correct according to my ear as far it is 
transcribed correctly. This is my first attempt at tab. Be nice.
Comments