Gorillaz - White Light Chords & Tabs

 

White Light Chords & Tabs

Gorillaz Chords & Tabs

Version: 2 Type: Bass Tab 0 ratings
1 star 2 stars 3 stars 4 stars 5 stars
comments

White Light Bass Tab

Artist:Gorillaz
Album: Demon Dayz
Tabber: Teh mikE  Trogdormws@aol.com

This Is a much Easier way to play an awesome gorillaz song

intro*(00:11)
G[-----------------------------]
D[-----------------------------]
A[-----------------------------]
E[-----5-5-5-5--7--------------]

Main*
G[----------------------------]
D[----------------------------]
A[----------5--5--5p7---------]
E[----0-0--7--7--7------------]
[ Tab from: http://www.guitartabs.cc/tabs/g/gorillaz/white_light_btab_ver_2.html ]
Crazy Fuzzness (Im almost sure it done by guitar but still:)*
G[----------------------------------------------------]
D[----------------------------------------------------]
A[----------------------------------------------------]
E[---0-3/5-5-5-5-5-5-5-5--5/3-3-3-3-3-3-3-3-----------]


 Ending#1*
G[----------------------]
D[----------------------]
A[----------------------]
E[--0-0-0-0--3-3-5/7----]

 Ending#2*
G[----------------------]
D[----------------------]
A[----------------------]
E[--0-0-0-0--3-3-5-3----]


Just Listen to the song for the timeing and the setup   ;)
Comments