Gorillaz - Starshine Chords & Tabs

 

Starshine Chords & Tabs

Gorillaz Chords & Tabs

Version: 5 Type: Tab 0 ratings
1 star 2 stars 3 stars 4 stars 5 stars
comments

Starshine Tab

Band: Gorillaz
Song: Starshine
Tabbed By: Daniel Luengas
E-mail: daniel182col@hotmail.com

this is kind of easy and i'm sure is right, so enjoy......

Intro:
e|--------------------------------------------------------------------|
B|--------------------------------------------------------------------|
G|-----------------12---------12-10-8-------------11-------11-9-7-----|
D|-10-10-10-10-10--12--10-10--12-10-8--9-9-9-9-9--11--9-9--11-9-7-----|
A|-10-10-10-10-10--10--10-10--10--8-6--9-9-9-9-9---9--9-9---9-7-5-----|
E|--8--8--8--8--8-------8--8-----------7-7-7-7-7------7-7-------------|

Verse:
e|--------------------------------------------------------------------|
B|--------------------------------------------------------------------|
G|-----------------12---------12-10-8-------------11-------11-9-7-----|
D|-10-10-10-10-10--12--10-10--12-10-8--9-9-9-9-9--11--9-9--11-9-7-----|
A|-10-10-10-10-10--10--10-10--10--8-6--9-9-9-9-9---9--9-9---9-7-5-----| 
E|--8--8--8--8--8-------8--8-----------7-7-7-7-7------7-7-------------|

Bass solo
[ Tab from: http://www.guitartabs.cc/tabs/g/gorillaz/starshine_tab_ver_5.html ]
Intro:
e|--------------------------------------------------------------------|
B|--------------------------------------------------------------------|
G|-----------------12---------12-10-8-------------11-------11-9-7-----|
D|-10-10-10-10-10--12--10-10--12-10-8--9-9-9-9-9--11--9-9--11-9-7-----|
A|-10-10-10-10-10--10--10-10--10--8-6--9-9-9-9-9---9--9-9---9-7-5-----|
E|--8--8--8--8--8-------8--8-----------7-7-7-7-7------7-7-------------|

Chorus:
e|--------------------------------------------------------------------|
B|--------------------------------------------------------------------|
G|-----------------12---------12-10-8-------------11-------11-9-7-----|
D|-10-10-10-10-10--12--10-10--12-10-8--9-9-9-9-9--11--9-9--11-9-7-----|
A|-10-10-10-10-10--10--10-10--10--8-6--9-9-9-9-9---9--9-9---9-7-5-----|
E|--8--8--8--8--8-------8--8-----------7-7-7-7-7------7-7-------------|

Outro:
e|--------------------------------------------------------------------|
B|--------------------------------------------------------------------|
G|-----------------12---------12-10-8-------------11-------11-9-7-----|
D|-10-10-10-10-10--12--10-10--12-10-8--9-9-9-9-9--11--9-9--11-9-7-----|
A|-10-10-10-10-10--10--10-10--10--8-6--9-9-9-9-9---9--9-9---9-7-5-----|
E|--8--8--8--8--8-------8--8-----------7-7-7-7-7------7-7-------------|

Sorry, you have to figure how many times you play each thing, hope you enjoy
any problem or comments e-mail me.
Comments