Gorillaz - Starshine Chords & Tabs

 

Starshine Chords & Tabs

Gorillaz Chords & Tabs

Version: 4 Type: Tab 0 ratings
1 star 2 stars 3 stars 4 stars 5 stars
comments

Starshine Tab

RIFF 1
e-----------------------------------------------------------
B-----------------------------------------------------------
G-----------------------------------------------------------
D-----------------------------------------------------------
A----------9------9-7-5---------4-----4---------------------
E-7-7-7-7----7-7--------3-3-3-3---3-3---5-------------------

 REPEAT TILL RIFF 2
[ Tab from: http://www.guitartabs.cc/tabs/g/gorillaz/starshine_tab_ver_4.html ]
RIFF 2
e-----------------------------------------------------------
B-----------------------------------------------------------
G-----------------------------------------------------------
D-----------------------------------------------------------
A---------9-5---------4-----4-------------------------------
E-7-7-7-7-----3-3-3-3---3-3----5----------------------------
 PLAY 1 TIME ONLY

BACK TO RIFF 1 AT END OF RIFF 2
Comments