Gorillaz - Starshine Chords & Tabs

 

Starshine Chords & Tabs

Gorillaz Chords & Tabs

Version: 1 Type: Bass Tab 0 ratings
1 star 2 stars 3 stars 4 stars 5 stars
comments

Starshine Bass Tab

   
-------------------------------------------------------------------------------
			     STARSHINE - Gorillaz
-------------------------------------------------------------------------------

Tabbed By : James Nolan
e-mail: basseyne@hotmail.com

Tuning: Standard (EADG)

Pretty simple and fun. As always, listen to the song to get the right rhythm.
My first tab, but I'm fairly certain it's right.

Riff 1 (0:20) Play until solo
G|--------------------------------------------|
D|-9-9-9-9-----9-9-9-----5-5-5-5-----5-5-5----|
A|---------9~--------9~----------5~--------5-7|
E|--------------------------------------------|
[ Tab from: http://www.guitartabs.cc/tabs/g/gorillaz/starshine_btab.html ]
Solo (1:13)
G|---------------------------------------------7-7-7-|
D|---------7-5-7-----------------------7-7-----------|
A|---------------------9-7-9---5-5-5-5-----5-5-------|
E|-5-5-5-5---------7-7-------------------------------|
(cont.)
G|---------------------------------------------7-7-----7-6-|
D|---------7-5-7-----------------------7-7-----------------|
A|---------------------9-7-9---5-5-5-5-----5-5-----5-5-----|
E|-5-5-5-5---------7-7-------------------------------------|

Riff 2 (1:41) Follow the funky keyboard to the end if you so wish
G|------------------------------------------|
D|---------4------4-2-0---------------------|
A|-2-2-2-2-----------------------4------4-0-|
E|------------2-2--------3-3-3-3----3-3-----|


| /  slide up
| \  slide down
| h  hammer-on
| p  pull-off
| ~  vibrato
| +  harmonic
| x  Mute note
===============================================================================
Comments