Gorillaz - O Green World Chords & Tabs

 

O Green World Chords & Tabs

Gorillaz Chords & Tabs

Version: 1 Type: Bass Tab 0 ratings
1 star 2 stars 3 stars 4 stars 5 stars
comments

O Green World Bass Tab

Artist: Gorillaz
Album: Demon days



this has got to be one of the best albums of year, definitely.
Nice track too! 

Into/verse
G|----------------------------|  don't know how many times you have to repeat
D|----------------------------|  it, but I know you have to
A|------------5--5--5-5-------|  
E|-5-4-3-3-1------------------|




[ Tab from: http://www.guitartabs.cc/tabs/g/gorillaz/o_green_world_btab.html ]
Middle bit
Listen to the record to figure out the timing and when to slide
 
  
G|-----------------------------------------------------------------|  
D|-----------------------------------------------------------------|  
A|-5-5-5-5-3-5---8-8-8-8-5-8--10-10-10-10-8-10--12-12-12/-0-0-0-3-5|  
E|-----------------------------------------------------------------|
Keyboard bit
Might as well put this in for the sake of it. Sounds good anyway
 
G|-------------------------|  Repeat
D|-5-5-5-3--5-5-5-3--------|  
A|-------------------------|  
E|-------------------------|  
    Then
G|--------------------------|  
D|--------------------------|  
A|-0-0-0-3-5----------------|  
E|--------------------------|
Comments