Gorillaz - November Has Come Chords & Tabs

 

November Has Come Chords & Tabs

Gorillaz Chords & Tabs

Version: 1 Type: Tab 0 ratings
1 star 2 stars 3 stars 4 stars 5 stars
comments

November Has Come Tab

I's not that hard to play,but do practise then u'll sound like a pro!!!

E------------------------------------------------------------------|
B---0-12-0---------0-12-0-----------0-12-0--------0-12-0-----------|
G------------2-2-2-----------2-2-2-5---------2-2-2------ 2-2----0--|
D------------------------------------------------------------------|
A------------------------------------------------------------------|
E------------------------------------------------------------------|
[ Tab from: http://www.guitartabs.cc/tabs/g/gorillaz/november_has_come_tab.html ]
E------------------------------------------------------------------|
B------------------------------------------------------------------|
G------------------------------------------------------------------|
D--2---2-0---0-0---2--0---5--2--2-0--0-0---------------------------|
A-----------3-3------3--------------3-3---3------------------------|
E------------------------------------------------------------------|
    ^
    | that bit is repeated for the rest of the song.

Hope u enjoy it as much as i do! Made by Nina Chung:)
Comments