Gorillaz - M1a1 Chords & Tabs

 

M1a1 Chords & Tabs

Gorillaz Chords & Tabs

Version: 2 Type: Tab 0 ratings
1 star 2 stars 3 stars 4 stars 5 stars
comments

M1a1 Tab

standard tuning


|------------------
|------------------
|------------------
|------------------
|------------------
|-----5-5-0-1-1----      Repeat 5x


|------------------
|------------------
|------------------
|-------7-7-0-3----
|-------7-7-0-3----
|-------5-5-0-1----       Repeat 4x
[ Tab from: http://www.guitartabs.cc/tabs/g/gorillaz/m1a1_tab_ver_2.html ]
|--------------------
|--------------------
|--------3------7-7--
|--7-7-0--3--0--7-7--
|--7-7-0--3--0--7-7--       play all the way through
|--5-5-0--1--0--5-5--

solo:

|-7-7-7-7-9-9-9-9-11-11-11-11-13-13-13-13-14-14-15-16-17-19-
|-----------------------------------------------------------
|-----------------------------------------------------------
|-----------------------------------------------------------
|-----------------------------------------------------------
|-----------------------------------------------------------
 
sorry, i know it's crapy, but it's pretty close 
Comments