Gorillaz - M1a1 Chords & Tabs

 

M1a1 Chords & Tabs

Gorillaz Chords & Tabs

Version: 1 Type: Tab 0 ratings
1 star 2 stars 3 stars 4 stars 5 stars
comments

M1a1 Tab

   
Gorillaz    -    M1A1

I'm not sure about the verse, but it sounds right for me

Intro:
e|--------------------|-------------------------|
B|--------------------|-------------------------|
G|--------------------|-------------------------| Repeat this a lot of times
D|--------------------|-------------------------|
A|--------------------|-------------------------|
E|-3-5--5-5--5-5--5-5-|-0-1--1-1--1-1--1-1--1-1-|
  Hello... It's anyone there?...
[ Tab from: http://www.guitartabs.cc/tabs/g/gorillaz/m1a1_tab.html ]
e|--------------------|-------------------------|
B|--------------------|-------------------------|
G|--------------------|-------------------------| Repeat this a lot of times
D|--------------------|-------------------------|
A|-5-7--7-7--7-7--7-7-|-2-3--3-3--3-3--3-3--3-3-|
E|-3-5--5-5--5-5--5-5-|-0-1--1-1--1-1--1-1--1-1-|
  Hello... It's anyone there?...

Verse And Chorus:
e|--------------------|
B|--------------------|
G|------6-------------|
D|-7-7--6----7-7--5---| Repeat a lot of times
A|-7-7--4----7-7--5---|
E|-5-5-------5-5--3---|


Solo:
e|-7-7-7-7-8-8-8-8-9-9-9-9-10-10-10-10-11-11-11-11-12-12-12-12-13-13-13/14-18-13-|
B|-------------------------------------------------------------------------------|
G|-------------------------------------------------------------------------------|
D|-------------------------------------------------------------------------------|
A|-------------------------------------------------------------------------------|
E|-------------------------------------------------------------------------------| x4

That's all, sugestions, corrections or anything else, mail-me at b182_aliens@hotmail.com
Comments