Gorillaz - Kids With Guns Chords & Tabs

 

Kids With Guns Chords & Tabs

Gorillaz Chords & Tabs

Version: 3 Type: Tab 0 ratings
1 star 2 stars 3 stars 4 stars 5 stars
comments

Kids With Guns Tab

   
This is a great song. 

Verse:

Bass line:

E|-----------------|          |-------------------------------------------|
B|-----------------|          |-------------------------------------------|
G|-----------------|          |-------------------------------------------|
D|-----------------| x11 then |-------------------------------------------|
A|----------77-55--|          |-------------------77----7777-6-5-4-3-2-1-0|
E|--77-55----------|          |--777--777------55----55-------------------|

Guitar:
Enters after the bass plays through once.
[ Tab from: http://www.guitartabs.cc/tabs/g/gorillaz/kids_with_guns_tab_ver_3.html ]
    B5    A5    E5    D5
E|---------------------------|
B|------0-----0--------------|
G|------0-----0-9-9-x-5-5-5--|
D|--9-9-0-5-5-0-9-9-x-5-5-5--|
A|--9-9-0-5-5-0-7-7-x-3-3-3--|
E|--7-7---3-3----------------|

Chorus:
 
    B5        A5        E5        D5
e|-----------------------------------------|
B|-----------------------------------------|
G|--------------------------9---------7----|
D|------9---------7-------9---9-----7---7--|
A|----9---9-----7---7---7---------5--------|
E|--7---------5----------------------------|

Outro:
 
    B5
e|-----------------14-14-14--12-12-12---|
B|--------------------------------------|
G|--------------------------------------|
D|--7777--------------------------------| repeat till end
A|--7777-(x7)---------------------------|
E|--9999--------------------------------|


Thats it!

This is my 1st ever tab so plz rate me!
                                        Lewis55
Comments