Gorillaz - Hong Kong Chords & Tabs

 

Hong Kong Chords & Tabs

Gorillaz Chords & Tabs

Version: 1 Type: Tab

Hong Kong Tab

-------------------------------------------------------------------------------
			HONG KONG - Gorillaz
-------------------------------------------------------------------------------
Tabbed by: Ben D.
I am not really sure about this one.

Tuning: standard
[ Tab from: http://www.guitartabs.cc/tabs/g/gorillaz/hong_kong_tab.html ]
e|-----------3--3--------3---3--------3---3--------3---3------------------------------|
B|------------ 3-----------3------------3-------------3-------------------------------|
G|------------------------------------------------------------------------------ -----|
D|------------------------------------------------------------------------ -----------|
A|---2---------------2------------2------------2--------------------------------------|
E|------------------------------------------------------------------------------------|

e|-------2---2-------2---2------2----2------2---2------------------------------------|
B|---------0-----------0-----------0-----------0-------------------------------------|
G|-----------------------------------------------------------------------------------|
D|-----------------------------------------------------------------------------------|
A|---0-----------0-----------0-----------0-------------------------------------------|
E|-----------------------------------------------------------------------------------|

I think that pretty much repeats throught all the verses