Gorillaz - Fell Good Inc Chords & Tabs

 

Fell Good Inc Chords & Tabs

Gorillaz Chords & Tabs

Version: 1 Type: Bass Tab 0 ratings
1 star 2 stars 3 stars 4 stars 5 stars
comments

Fell Good Inc Bass Tab

   
EMAIL:SYSTEM@yahoo.com
greenpeopledie@aim.com

tuning [ E A D G ]

<-------------------------->
<-------------------------->
<---------3-2--0-0-3-2----->
<-0-0-2-3--------------2-0->

<-------------------------------------->
<-------------------------------------->
<---------3-2--0-0-3-2----------------->
<-0-0-2-3--------------2-0---123456789->
                             ^^^^^^^^^
                             is a slide   

<-------------------------->
<-------------------------->
<---------3-2--0-0-3-2----->
<-0-0-2-3--------------2-0->

<-------------------------------------->
<-------------------------------------->
<---------3-2--0-0-3-2----------------->
<-0-0-2-3--------------2-0---123456789->
                             ^^^^^^^^^
                             is a slide   

<-------------------------->
<-------------------------->
<---------3-2--0-0-3-2----->
<-0-0-2-3--------------2-0->

<-------------------------------------->
<-------------------------------------->
<---------3-2--0-0-3-2----------------->

<-0-0-2-3--------------2-0---123456789->
                             ^^^^^^^^^
                             is a slide

<-------------------------->
<-------------------------->
<---------3-2--0-0-3-2----->
<-0-0-2-3--------------2-0->

<-------------------------->
<-------------------------->
<---------3-2--0-0-3-2----->
<-0-0-2-3--------------2-0->

ok this is the part ever tabber forgets in this song to got to here the song when its
played right before he says Windmill windmill for the land
Turn forever hand in hand.


<-------------------->
<-------------------->
<-5-5---------------->
<-----5-3-0--0-----0->

<----------------------------------------------->
<----------------------------------------------->
<----------------------------------------------->
<-999999999999999999999999999999999999999999999->
pm*********************************************

<----------------------------------------------->
<----------------------------------------------->
<----------------------------------------------->
<-999999999999999999999999999999999999999999999->
pm*********************************************

<-------------------------->
<-------------------------->
<---------3-2--0-0-3-2----->
<-0-0-2-3--------------2-0->

<-------------------------------------->
<-------------------------------------->
<---------3-2--0-0-3-2----------------->
<-0-0-2-3--------------2-0---123456789->
                             ^^^^^^^^^
                             is a slide
[ Tab from: http://www.guitartabs.cc/tabs/g/gorillaz/fell_good_inc_btab.html ]
<-------------------------->
<-------------------------->
<---------3-2--0-0-3-2----->
<-0-0-2-3--------------2-0->

<-------------------------------------->
<-------------------------------------->
<---------3-2--0-0-3-2----------------->
<-0-0-2-3--------------2-0---123456789->
                             ^^^^^^^^^
                             is a slide

<-------------------------->
<-------------------------->
<---------3-2--0-0-3-2----->
<-0-0-2-3--------------2-0->

<-------------------------------------->
<-------------------------------------->
<---------3-2--0-0-3-2----------------->
<-0-0-2-3--------------2-0---123456789->
                             ^^^^^^^^^
                             is a slide

<-------------------------->
<-------------------------->
<---------3-2--0-0-3-2----->
<-0-0-2-3--------------2-0->

<-------------------------------------->
<-------------------------------------->
<---------3-2--0-0-3-2----------------->
<-0-0-2-3--------------2-0---123456789->
                             ^^^^^^^^^
                             is a slide

when drums start playing..

<----------------------------------------------->
<----------------------------------------------->
<----------------------------------------------->
<-999999999999999999999999999999999999999999999->
pm*********************************************

<----------------------------------------------->
<----------------------------------------------->
<----------------------------------------------->
<-999999999999999999999999999999999999999999999->
pm*********************************************

<-------------------------------------->
<-------------------------------------->
<---------3-2--0-0-3-2----------------->
<-0-0-2-3--------------2-0---123456789->
                             ^^^^^^^^^
                             is a slide

<-------------------------------------->
<-------------------------------------->
<---------3-2--0-0-3-2----------------->
<-0-0-2-3--------------2-0---123456789->
                             ^^^^^^^^^
                             is a slide

<-------------------------------------->
<-------------------------------------->
<---------3-2--0-0-3-2----------------->
<-0-0-2-3--------------2-0---123456789->
                             ^^^^^^^^^
                             is a slide

<-------------------------------------->
<-------------------------------------->
<---------3-2--0-0-3-2----------------->
<-0-0-2-3--------------2-0---123456789->
                             ^^^^^^^^^
                             is a slide
END..

<--->
<--->
<--->
<-0->
Comments