Gorillaz - Feel Good Inc Chords & Tabs

 

Feel Good Inc Chords & Tabs

Gorillaz Chords & Tabs

Version: 6 Type: Tab 0 ratings
1 star 2 stars 3 stars 4 stars 5 stars
comments

Feel Good Inc Tab

   
Tabbed by butcherworm
e-mail: butcherworm@hotmail.com

tuning: EADGBe (standard)

Verse: (transcribed for guitar)

e|------------------------------|
B|------------------------------|
G|------------------------------|
D|------------------------------|
A|------------------------------|
E|-0-0-2-3-8--7~--5-5-8-7-3--0--|


Guitar plays:

e|-11----11------------------------------------------|
B|----11----11---14---14----12----12-----------------|
G|------------------13---13----13----8--10--8--------|
D|---------------------------------------------------|
A|---------------------------------------------------|
E|---------------------------------------------------|


Chorus:
[ Tab from: http://www.guitartabs.cc/tabs/g/gorillaz/feel_good_inc_tab_ver_6.html ]
e|-----------------------------------------------------------------------|
B|-----------------------------------------------------------------------|
G|-----------------------------------------------------------------------|
D|-------------------------0---------------------------------------------|
A|-----------------0---2--------2--------0----------------0--------------|
E|---0---2----3-------------------------------3---0---3-------3---2------|

   Windmill, Windmill for the land.    Learn for- e -ver hand in hand.




D#m                A#m
Windmill, Windmill for the land.
G#m           A#m
Learn forever hand in hand
D#m               A#m
Take it all in on your stride
G#m             A#m
It is sticking, falling down
D#m          A#m
Love forever love is free
G#m                A#m
Let's turn forever you and me
D#m                A#m
Windmill, Windmill for the land
   G#m
Is everybody in?


D#m : x68876
A#m : 688666
G#m : 466444


-------------------------------------------------------------------------
plaese correct it if its wrong.

for questions mail to butcherworm@hotmail.com
www.butcherworm.de.vu
Comments