Gorillaz - Feel Good Inc Chords & Tabs

 

Feel Good Inc Chords & Tabs

Gorillaz Chords & Tabs

Version: 5 Type: Tab 0 ratings
1 star 2 stars 3 stars 4 stars 5 stars
comments

Feel Good Inc Tab

   
_____________________________________________________________________

[Legend]

| /  slide up
| \  slide down
| x  Un-played/Ghost note
| p  Pull off
| <> Between these are Notes from me.

| |
|O|
| |  Repeat Sign... Pay attention to these!!
| |
|O|
| |
_____________________________________________________________________

Song Structure:

-Intro
-Verse [Stoner]
-Chorus/Bridge 1
-Verse [Rapping]
-Bridge 2/Chorus
-Verse [Rapping]
-A lot of laughing... 
_____________________________________________________________________

Intro/Verse:
[Gutiar 1 Riff]

8x                                        
E|-11----11--------9-9-7-6-7------------| |
B|---11----11----------------7\4/6\4----|O|
G|--------------------------------------| |
d|--------------------------------------| |
A|--------------------------------------|O|
D|--------------------------------------| |

[Guitar 2 Riff]
<>ONLY PLAY THIS PART IN THE FIRST VERSE!!!<>

4x
E|--14-16-14-13-----14-16-14-13-----19--| |
B|--------------------------------------|O|
G|--------------------------------------| |
D|--------------------------------------| |
A|--------------------------------------|O|
D|--------------------------------------| |

Chorus:
[Guitar 1 Chords]
The strumming technique here is very "Funk/Jazz" style... be careful. There's a lot
of strong up-strums. My advice would be to try not to playthe lower ends of the chords.
As you can see, the roots on the A#m and G#m aren't even played anyway.
[ Tab from: http://www.guitartabs.cc/tabs/g/gorillaz/feel_good_inc_tab_ver_5.html ]
4x   D#m            A#m            G#m            A#m
E|---7-7--7--7--7---7-7--7--7--7---5-5--5--5--5---7-7--7--7--7----| |
B|---8-8--8--8--8---7-7--7--7--7---5-5--5--5--5---7-7--7--7--7----|O|
G|---9-9--9--9--9---7-7--7--7--7---5-5--5--5--5---7-7--7--7--7----| |
d|---9-9--9--9--9---9-9--9--9--9---7-7--7--7--7---9-9--9--9--9----| |
A|---7-7--7--7--7---9-9--9--9--9---7-7--7--7--7---9-9--9--9--9----|O|
D|------------------X-X--X--X--X---X-X--X--X--X---X-X--X--X--X----| |

[Guitar 2 Riff]
[Really easy...]

3x
E|-6-6-4-6-4-6-4-6-4-|6-4-6-4-6-4-6-4p2--| |
B|-------------------|-------------------|O|
G|-------------------|-------------------| |
d|-------------------|-------------------| |
A|-------------------|-------------------|O|
D|-------------------|-------------------| |

Bridge 1:

[Guitar 1 Chords]

2x  A#m           
E|--7-7--7--7--7-|
B|--7-7--7--7--7-|
G|--7-7--7--7--7-|
D|--9-9--9--9--9-|
A|--9-9--9--9--9-|
D|--X-X--X--X--X-|

[Guitar 2 Riff]

E|-6-6-4-6-4-6-4-6-4-|6-4-6-4-6-4-6-4-|-6-4-6-4-6-4| |
B|-------------------|----------------|------------|O|
G|-------------------|----------------|------------| |
d|-------------------|----------------|------------| |
A|-------------------|----------------|------------|O|
D|-------------------|----------------|------------| |

[Verse Plays]

[Bridge 2 Plays]
Bridge 2 has nothing new. It plays for three phrases with the Guitar Chorus Riff
playing over it. The chords for the chorus play in the second and third phrases.

[Chorus Plays]

[Verse Plays]
<>Remember that there is no Guitar 2 riff in this verse<>

<>Have fun and check out my site. Feel free to email me and tell me what you think of this tab...<>

=============================================================================
Comments