Gorillaz - Feel Good Inc Chords & Tabs

 

Feel Good Inc Chords & Tabs

Gorillaz Chords & Tabs

Version: 2 Type: Tab 0 ratings
1 star 2 stars 3 stars 4 stars 5 stars
comments

Feel Good Inc Tab

   
#----------------------------------PLEASE NOTE---------------------------------#
#This file is the author's own work and represents their interpretation of the #
#song. You may only use this file for private study, scholarship, or research. #
#------------------------------------------------------------------------------##

For the Intro/Outro and verse a bass is played but this is translated over to guitar

For the verse (where the lyrics start), you can play the same chords as the chorus or play the 
bass line. I put the bass line in this tab.

E|-----------------------------------------------------------
B|-----------------------------------------------------------
G|-----------------------------------------------------------
D|-----------------------------------------------------------
A|----------3-2-0-0-3-2-----------------3-2-0-0-3-2-----/7---
E|-0-0-2-3--------------3-0----0-0-2-3--------------3-0------

E|-----------------------------------------------------------
B|-----------------------------------------------------------
G|-----------------------------------------------------------
D|-----------------------------------------------------------
A|----------3-2-0-0-3-2-----------------3-2-0-0-3-2-----/7---
E|-0-0-2-3--------------3-0----0-0-2-3--------------3-0------

This is where the lyrics start (City's breaking down...)
E|-----------------------------------------------------------
B|-----------------------------------------------------------
G|-----------------------------------------------------------
D|-----------------------------------------------------------
A|----------3-2-0-0-3-2-----------------3-2-0-0-3-2-----/7---
E|-0-0-2-3--------------3-0----0-0-2-3--------------3-0------

E|-----------------------------------------------------------
B|-----------------------------------------------------------
G|-----------------------------------------------------------
D|-----------------------------------------------------------
A|----------3-2-0-0-3-2-----------------3-2-0-0-3-2-----/7---
E|-0-0-2-3--------------3-0----0-0-2-3--------------3-0------



D#m                A#m7
-------------------------
G#m            C#
-------------------------
D#m              A#m7   
-------------------------
G#m                   C#
-------------------------
D#m           A#m7
-------------------------
G#m                C#        
-------------------------
D#m                  A#m7
-------------------------
G#m           C#,C#,C#,C#
-------------------------    

[ Tab from: http://www.guitartabs.cc/tabs/g/gorillaz/feel_good_inc_tab_ver_2.html ]
Start of Rap (Laughin gas, these hazmats...)
E|-----------------------------------------------------------
B|-----------------------------------------------------------
G|-----------------------------------------------------------
D|-----------------------------------------------------------
A|----------3-2-0-0-3-2-----------------3-2-0-0-3-2-----/7---
E|-0-0-2-3--------------3-0----0-0-2-3--------------3-0------

E|-----------------------------------------------------------
B|-----------------------------------------------------------
G|-----------------------------------------------------------
D|-----------------------------------------------------------
A|----------3-2-0-0-3-2-----------------3-2-0-0-3-2-----/7---
E|-0-0-2-3--------------3-0----0-0-2-3--------------3-0------
                                                       End of Rap

E|-----------------------------------------------------------
B|-----------------------------------------------------------
G|-----------------------------------------------------------
D|-----------------------------------------------------------
A|----------3-2-0-0-3-2-----------------3-2-0-0-3-2-----/7---
E|-0-0-2-3--------------3-0----0-0-2-3--------------3-0------

The C# chord is played until the chorus comes back (about 30 strums)



D#m                A#m7
----------------------------
G#m            C#
----------------------------
D#m              A#m7   
----------------------------
G#m                   C#
----------------------------
D#m           A#m7
---------------------
G#m                C#        
----------------------------
D#m                  A#m7
----------------------------
G#m           C#,C#,C#,C#
--------------    


(Don't Stop, get it get it...)
E|-----------------------------------------------------------
B|-----------------------------------------------------------
G|-----------------------------------------------------------
D|-----------------------------------------------------------
A|----------3-2-0-0-3-2-----------------3-2-0-0-3-2-----/7---
E|-0-0-2-3--------------3-0----0-0-2-3--------------3-0------

E|-----------------------------------------------------------
B|-----------------------------------------------------------
G|-----------------------------------------------------------
D|-----------------------------------------------------------
A|----------3-2-0-0-3-2-----------------3-2-0-0-3-2-----/7---
E|-0-0-2-3--------------3-0----0-0-2-3--------------3-0------

E|-----------------------------------------------------------
B|-----------------------------------------------------------
G|-----------------------------------------------------------
D|-----------------------------------------------------------
A|----------3-2-0-0-3-2-----------------3-2-0-0-3-2-----/7---
E|-0-0-2-3--------------3-0----0-0-2-3--------------3-0------

    

    D#m       A#m7     G#m      C#
E|---6---   ---6---  ---4---  ---4---
B|---7---   ---6---  ---4---  ---6---
G|---8---   ---6---  ---4---  ---6---
D|---8---   ---6---  ---6---  ---6---
A|---6---   ---8---  ---6---  ---4---
E|---x---   ---6---  ---4---  ---x---
Comments