Gorillaz - Feel Good Inc Chords & Tabs

 

Feel Good Inc Chords & Tabs

Gorillaz Chords & Tabs

Version: 1 Type: Tab 14 ratings
1 star 2 stars 3 stars 4 stars 5 stars
comments

Feel Good Inc Tab

   
A lot of the other people who submitted tabs for this song are indeed correct, but there are a couple parts they're missing.

In the first verse, it's just the bass (can also be played on guitar) and a faint guitar part in the background. I'll leave the bass part to bass tabbers, but if you want to play it on guitar, you need to tune your E and A strings down to D and G. Here's the tab for the first verse (and any other time you hear the really cool bass riff)

E|-----------------------------------------------------------
B|-----------------------------------------------------------
G|-----------------------------------------------------------
D|-----------------------------------------------------------
G|----------3-2-0-0-3-2-----------------3-2-0-0-3-2-----/7---
D|-0-0-2-3--------------3-0----0-0-2-3--------------3-0------

The background guitar goes like this:
[ Tab from: http://www.guitartabs.cc/tabs/g/gorillaz/feel_good_inc_tab.html ]
E|----11----11----11-------9----9----9------7----7--------
B|-11----11----11----11\9----9----9----9\7----7----4/6----
G|--------------------------------------------------------
D|--------------------------------------------------------
A|--------------------------------------------------------
E|--------------------------------------------------------

When the "Windmill, windmill, for the land..." part starts it's just an acoustic guitar playing chords. These are pretty easy. The progression continues as following.

     D#m       A#m7     G#m      C#
E|---6---   ---6---  ---4---  ---4---
B|---7---   ---6---  ---4---  ---6---
G|---8---   ---6---  ---4---  ---6---
D|---8---   ---6---  ---6---  ---6---
A|---6---   ---8---  ---6---  ---4---
E|---x---   ---6---  ---4---  ---x---

At the very end of the chorus, they repeat the C# chord until the bass line picks back up.

I'm sure you can figure out the progression by listening to the song.

Enjoy!
Comments