Gorillaz - Feel Good Inc Chords & Tabs

 

Feel Good Inc Chords & Tabs

Gorillaz Chords & Tabs

Version: 4 Type: Bass Tab 0 ratings
1 star 2 stars 3 stars 4 stars 5 stars
comments

Feel Good Inc Bass Tab

   
Artist: Gorrilaz
Song: Feel Good Inc.
Album: Demon Days


Drop D (tune E to D)

Feel Good

Intro (0:07):

G/-------------------------------------------------|
D/--------------8-7--------------------------------|
A/--5---5-7--8-------------------------------------|
D/--------------------5---5-8--7-----3--0----------|

G/-------------------------------------------------|
D/--------------8-7--------------------------------|
A/--5---5-7--8-------------------------------------|
D/--------------------5---5-8--7-----3--0---12-12--|    (X1)
[ Tab from: http://www.guitartabs.cc/tabs/g/gorillaz/feel_good_inc_btab_ver_4.html ]
G/-------------------------------------------------|
D/--------------8-7--------------------------------|
A/--5---5-7--8-------------------------------------|
D/--------------------5---5-8--7-----3--0----------|    (X2)

Verse (0:35):

G/-------------------------------------------------|
D/--------------8-7--------------------------------|
A/--5---5-7--8-------------------------------------|
D/--------------------5---5-8--7-----3--0---12-12--|    (X4)

Bridge (1:03):

G/------------------------|
D/------------------------|
A/--7--5------------------|
D/--------7------5-3-0----|                             (X1)


Chorus (1:06) [Bass Tacet]

Verse (1:38):                                          (X6)

Chorus (2:26) [Bass Tacet]

Verse (3:11):                                          (X6)


this one's really easy.... and fun to play... enjoy.>>>

add me sa friendster.. >>perverted_porcupine@yahoo.com<<
Comments