Gorillaz - El Manana Chords & Tabs

 

El Manana Chords & Tabs

Gorillaz Chords & Tabs

Version: 1 Type: Bass Tab 0 ratings
1 star 2 stars 3 stars 4 stars 5 stars
comments

El Manana Bass Tab

Gorillaz
El Maņana
Tabbed by Ryan.c

This sounds like a song by sting,
but the difference is, its good.
 
Intro
Nice and simple,
Listen to get the timing right

G|------------------------------------|
D|------------------------------------|
A|------------------------------------|
E|-5-5-5-5-5-5-5-5--3--3-3-3-3-3-3-3-3|

G|----------------------------------|
D|----------------------------------|
A|----------------------------------|
E|-1-1-1-1-1-1-1-1--0-0-0-0-0-0-0-0-|

Verse

G|------------------------------------|
D|------------------------------------|
A|------------------------------------|
E|-5-5-5-5-5-5-5-5--3--3-3-3-3-3-3-3-3|
[ Tab from: http://www.guitartabs.cc/tabs/g/gorillaz/el_manana_btab.html ]
G|----------------------------------|
D|----------------------------------|
A|----------------------------------|
E|-1-1-1-1-1-1-1-1--0-0-0-0-0-0-0-0-|

G|------------------------|
D|------------------------|
A|------------------------|
E|-5-5-5--5-5-5-----------|

G|---------------------------------|
D|-------2-2-----------------------|
A|-----------3-3----3-5-3----------|
E|-5-5-5----------3-------5--------|


Chorus
 
G|------------------------------------|
D|------------------------------------|
A|------------------------------------|
E|-5-5-5-5-5-5-5-5--3--3-3-3-3-3-3-3-3|

G|----------------------------------|(x2)
D|----------------------------------|
A|----------------------------------|
E|-1-1-1-1-1-1-1-1--0-0-0-0-0-0-0-0-|



G|---------------------------------|(x4)
D|-------2-2-----------------------|
A|-----------3-3----3-5-3----------|
E|-5-5-5----------3-------5--------|
Comments