Gorillaz - Clint Eastwood Chords & Tabs

 

Gorillaz Chords & Tabs

Version: 2 Type: Tab 3 ratings
1 star 2 stars 3 stars 4 stars 5 stars
comments

Clint Eastwood Tab

Song: Clint Eastwood
Artist: Gorillaz
                       
Drop Tuning Down Half a Step
eb||-----------------------|-----------------------|-----------------------|
Bb||-------8--8-------8----|-------8--8-------8----|-------8--8-------8----|
Gb||-------9--9-------9----|-------9--9-------9----|-------9--9-------9----|
Db||-------9--9-------9----|-------9--9-------9----|-------9--9-------9----|
Ab||-----------------------|-----------------------|-----------------------|
Eb||--0----------7---------|--0----------7---------|--0----------7---------|

|-----------------------||
|-------8--8------------||
|-------9--9------------||
|-------9--9------------||
|-----------------------||
|--0----------8----7----||   Played Throughout Entire Song



[ Tab from: http://www.guitartabs.cc/tabs/g/gorillaz/clint_eastwood_tab_ver_2.html ]
Comments