Gorillaz - Clint Eastwood Chords & Tabs

 

Clint Eastwood Chords & Tabs

Gorillaz Chords & Tabs

Version: 1 Type: Tab

Clint Eastwood Tab

Gorillaz - Clint Eastwood

Pretty easy. I arranged it for a guitar but
on track it is played on a bass and piano.

[ Tab from: http://www.guitartabs.cc/tabs/g/gorillaz/clint_eastwood_tab.html ]
E --------------------------------------------------
B ------8-8----8------8-8---8------8-8---8------8-8-
G ------9-9----9------9-9---9------9-9---9------9-9-
D ------9-9----9------9-9---9------9-9---9------9-9-
A --------------------------------------------------
E -0---------7---0--------7---0--------7---0--------

E ----------
B ----------    That's it. At the end of the song
G ----------	the bass jumps around a bit so just
D ----------    make it up.
A ----------
E -8-7-6-5--

Email: emfusionuk@yahoo.co.uk