Gorillaz - 68 State Chords & Tabs

 

Gorillaz Chords & Tabs

Version: 2 Type: Bass Tab 0 ratings
1 star 2 stars 3 stars 4 stars 5 stars
comments

68 State Bass Tab

by joeb2880

An unknown song by Gorillaz from their album D Sides


[ Tab from: http://www.guitartabs.cc/tabs/g/gorillaz/68_state_btab_ver_2.html ]
-0:07
G |------------------------------------------------------------------|
D |-4-4-4-4-4-4-4-4-2-2-2-2-2-2-2-2-2--------------------------------|
A |-----------------------------------0-0-0-0-0-0-0-0-2-2-2-2-2-2-2-2|
E |------------------------------------------------------------------|

-1:42
G |----------------------------------|
D |----------------------------------|
A |-------------------2-2-2-2-2-2-2-2|
E |-2-2-2-2-2-2-2-2-2----------------|


-2:10 repeat 0:07 until

-2:34 repeat 1:20 until

-3:02 repeat 1:42 until

-3:17 repeat 0:07 until

-2:47 no bass until 

-3:55 repeat 1:20 until the end of the song
            
Comments