Gorillaz - 5 Chords & Tabs

 

Gorillaz Chords & Tabs

Version: 1 Type: Tab 0 ratings
1 star 2 stars 3 stars 4 stars 5 stars
comments

5 Tab

   
/-----------------------------------------\
|         Song: Gorillaz - 5/4            |
| Tabbed By: Jon (hootchkins@hotmail.com) |
\-----------------------------------------/

This song is tabbed in standard tuning.

This song has two guitar tracks; one is played in the left speaker and the other in the right. Most of the tabbers here (Guitar Tab Universe) only tabbed the left guitar.

I'm pretty sure it goes something like this:


Guitar One Riff A:
|---------------------------------------|
|---------------------------------------|
|----------10--10--10----------8--8--8--|
|--10--10--10--10--10--10--10--8--8--8--|
|--10--10--8---8---8---10--10--6--6--6--|
|--8---8---------------8---8------------|

Guitar Two Riff A:
|---------------------------------|
|---------------------------------|
|---------------------------------|
|--5--5--3--3--3--5--5--8--8--8\--|
|--5--5--3--3--3--5--5--8--8--8\--|
|--3--3--1--1--1--3--3--6--6--6\--|

[ Tab from: http://www.guitartabs.cc/tabs/g/gorillaz/5_tab.html ]
During the 4/4 part ("I turned my dad on"), it sounds like one guitar hits a C with distortion and lets it ring while the other guitar plays straight eighth notes on C without distortion:


Guitar One Riff B:
|-----|
|-----|
|-----|
|--5--|
|--5--|
|--3--|

Guitar Two Riff B:
|--------------------------|
|--------------------------|
|--------------------------|
|--5--5--5--5--5--5--5--5--|
|--5--5--5--5--5--5--5--5--|
|--3--3--3--3--3--3--3--3--|


----------------------------------------------------------------------------
Guitar  1   (Riff A) x4
Guitars 1+2 (Riff A) x12
Guitars 1+2 (Riff B) x4
Guitars 1+2 (Riff A) x3
Guitars 1+2 (Rest for one bar)
Guitars 1+2 (Riff A) x8
Guitars 1+2 (Riff A) x4 (Guitar 1? plays a weird distortion part)
Guitars 1+2 (Riff B) x4
Guitar  2   (Just hit two C's here)
Guitar  1   (Riff A) x4 (Guitar 1? plays a weird distortion part again)
Guitar  1+2 (Riff B) x6
Guitar  1+2 (Riff B) x2 (Guitar 1 plays eighth notes with guitar 2 this time)
----------------------------------------------------------------------------
Comments
Gorillaz chords | Gorillaz 5 tab