Gorillaz - 19 To Chords & Tabs

 

Gorillaz Chords & Tabs

Version: 1 Type: Tab 0 ratings
1 star 2 stars 3 stars 4 stars 5 stars
comments

19 To Tab

This a song by the Gorillaz that is fairly easy to play.  The faster you play
it, the better it sounds (don't play the FIRST 2 notes fast, just the
rest).  You also say the lyrics before playing the notes.

Song: 19-2000
Artist: Gorillaz
Album: Gorillaz
Submitted by: Punkgod2003
[ Tab from: http://www.guitartabs.cc/tabs/g/gorillaz/19_to_tab.html ]
                 -----------------15-------/-------------------15------/
                 ---------15--12------15---/-----------15--12------15--/
                 -12--12-------------------/---12--12------------------/
                 --------------------------/---------------------------/
                 --------------------------/---------------------------/
                 --------------------------/---------------------------/
You got the cool                            Got the cool shoeshine

                 ------------------17-------/-------------------15------
                 ----------17--14------17---/-----------15--12------15--
                 --14--14-------------------/---12--12------------------
                 ---------------------------/---------------------------
                 ---------------------------/---------------------------
                 ---------------------------/---------------------------
You got the cool                             Got the cool shoeshine 





Questions? E-mail me at Michealmce@msn.com    Have fun and rock on. 
Comments