Gorillaz - 19 2000 Chords & Tabs

 

Gorillaz Chords & Tabs

Version: 3 Type: Tab 0 ratings
1 star 2 stars 3 stars 4 stars 5 stars
comments

19 2000 Tab

Author/Artist: Gorillaz
Title: 19-2000
Transcribed by: Andrew Brown
Email: abrown22@start.com.au


GORILLAZ ?   19-2000

This is the main riff that runs throughout the song. You can actually play the notes on different strings 
well, but this is the easiest way to play it.


e---------------------------------------------------|
B---------------------------------------------------|
G------------------12----------------------12-------|
D----------9-12-9------12----------9-12-9------12---|
A----10----------------------10---------------------|
E---------------------------------------------------|
[ Tab from: http://www.guitartabs.cc/tabs/g/gorillaz/19_2000_tab_ver_3.html ]
e---------------------------------------------------|
B---------------------------------------------------|
G-------------------14--------------------12--------|
D---------11-14-11------14--------9-12-9------12----|
A----12----------------------10---------------------|
E---------------------------------------------------|

The at the end of the song they play it with an extra note:

e-------------------------------------------------------|
B-------------------------------------------------------|
G------------------12-----------------------12----------|
D----------9-12-9------12--9--------9-12-9------12--9---|
A----10-----------------------10------------------------|
E-------------------------------------------------------|

e----------------------------------------------------------|
B----------------------------------------------------------|
G-------------------14------------------------12-----------|
D---------11-14-11------14--11--------9-12-9------12--9----|
A----12-------------------------10-------------------------|
E----------------------------------------------------------|
Comments