Gorillaz - 12d3 Chords & Tabs

 

Gorillaz Chords & Tabs

Version: 1 Type: Tab 0 ratings
1 star 2 stars 3 stars 4 stars 5 stars
comments

12d3 Tab

Title: 12D3
Artist: GORILLAZ
Tabbed By: Edward Aris Fajardo
Email Address: ward_faj@yahoo.com

Guitar 1
e|-------3-------------------------------| --\ 
B|-------3-------------------------------|    \ 
G|---0-0-0-------------------------------|     \ played all the time
D|---0-0-0---0-2-0-5-0-------------------|     /
A|---2-2-2-------------------------------|    / 
E|---3-3-3-------------------------------| --/
[ Tab from: http://www.guitartabs.cc/tabs/g/gorillaz/12d3_tab.html ]
Guitar 2 (played after the chorus part)
e|--9-9-9-9-7-7-9-----9-9-9-9-7-7-9-----9-9-9-9-7-7-9-|
B|----------------------------------------------------| 
G|----------------------------------------------------|  
D|----------------------------------------------------|
A|----------------------------------------------------|
E|----------------------------------------------------|

e|--9-9-7-64-2-0-2/4-----------------------------|
B|------------------------------------------------|
G|------------------------------------------------|
D|------------------------------------------------|
A|------------------------------------------------|
E|------------------------------------------------|
I think the one on the first guitar sounds right but I'm not sure for the second one
This is my first tab so for comments just email me at my email add.
Baguhan pa lang ako sa mga tablatures kaya baka hindi maganda ang pagka tab. 
But this tab is not the first tab that I've submitted.
Comments