Gorgoroth - Under The Pagan Megalith Chords & Tabs

 

Under The Pagan Megalith Chords & Tabs

Gorgoroth Chords & Tabs

Version: 1 Type: Tab 0 ratings
1 star 2 stars 3 stars 4 stars 5 stars
comments

Under The Pagan Megalith Tab

   
Song: (Under) The Pagan Megalith
Band: Gorgoroth
Album: Pentagram
Tabbed by: Conor666Vyle
Tuning: Standard (E,A,D,G,B,E)

Intro Riff:
|----------------------------|
|----------------------------|
|----------------------------|
|----2--3--2--5--2--3--2--5--|
|----2--3--2--5--2--3--2--5--|
|///-0--1--0--3--0--1--0--3--|

Riff 1:
|---------------------------------------------------------------|
|---------------------------------------------------------------|
|---------------------------------------------------------------|
|-2-2-3-2-2-2-5-2-2-2-3-2-2-2-5-2-2-2-3-2-2-2-5-2-2-2-3-2-2-2-5-|
|-2-2-3-2-2-2-5-2-2-2-3-2-2-2-5-2-2-2-3-2-2-2-5-2-2-2-3-2-2-2-5-|
|-0-0-1-0-0-0-3-0-0-0-1-0-0-0-3-0-0-0-1-0-0-0-3-0-0-0-1-0-0-0-3-|

---------------------------------------------------------------|
---------------------------------------------------------------|
---------------------------------------------------------------|
-6-6-7-6-6-6-9-6-6-6-7-6-6-6-9-6-6-6-7-6-6-6-9-6-6-6-7-6-6-6-9-|
-6-6-7-6-6-6-9-6-6-6-7-6-6-6-9-6-6-6-7-6-6-6-9-6-6-6-7-6-6-6-9-|  x6
-4-4-5-4-4-4-7-4-4-4-5-4-4-4-7-4-4-4-5-4-4-4-7-4-4-4-5-4-4-4-7-|

Riff 2:
|----------------------------------------------------------------|
|----------------------------------------------------------------|
|-----9-----10----7-----7-----9------9-----10----7-----10----9---|
|-----9-----10----7-----7-----9------9-----10----7-----10----9---|
|-----7-----8-----5-----5-----7------7-----8-----5-----8-----7---|  x6
|-0-0---0-0---0-0---0-0---0-0----0-0---0-0---0-0---0-0---0-0-----|
pm. .   . .   . .   . .   . .    . .   . .   . .   . .   . .
[ Tab from: http://www.guitartabs.cc/tabs/g/gorgoroth/under_the_pagan_megalith_tab.html ]
Riff 3:
|--------------------------|
|--------------------------|
|--------------------------|
|-2--3--4--3--2--3--4--9-9-|
|-2--3--4--3--2--3--4--9-9-|  x4
|-0--1--2--1--0--1--2--7-7-|

Riff 1:
|---------------------------------------------------------------|
|---------------------------------------------------------------|
|---------------------------------------------------------------|
|-2-2-3-2-2-2-5-2-2-2-3-2-2-2-5-2-2-2-3-2-2-2-5-2-2-2-3-2-2-2-5-|
|-2-2-3-2-2-2-5-2-2-2-3-2-2-2-5-2-2-2-3-2-2-2-5-2-2-2-3-2-2-2-5-|
|-0-0-1-0-0-0-3-0-0-0-1-0-0-0-3-0-0-0-1-0-0-0-3-0-0-0-1-0-0-0-3-|

---------------------------------------------------------------|
---------------------------------------------------------------|
---------------------------------------------------------------|
-6-6-7-6-6-6-9-6-6-6-7-6-6-6-9-6-6-6-7-6-6-6-9-6-6-6-7-6-6-6-9-|
-6-6-7-6-6-6-9-6-6-6-7-6-6-6-9-6-6-6-7-6-6-6-9-6-6-6-7-6-6-6-9-|  x2
-4-4-5-4-4-4-7-4-4-4-5-4-4-4-7-4-4-4-5-4-4-4-7-4-4-4-5-4-4-4-7-|

|------|
|------|
|------|
|-2----|
|-2----|
|-0----|

Riff 4:
|--------------------------------------------------------|
|--------------------------------------------------------|
|--------------------------------------------------------|
|-2-2-3-2-2-5-2-2-3-2-2------2-2-3-2-2-5-2-2-3-2-2-99999-|
|-2-2-3-2-2-5-2-2-3-2-2------2-2-3-2-2-5-2-2-3-2-2-99999-|
|-0-0-1-0-0-3-0-0-1-0-0-3~~~-0-0-1-0-0-3-0-0-1-0-0-77777-|
pm. .   . .   . .   . .      . .   . .   . .   . .

--------------------------------------------------------|
--------------------------------------------------------|
--------------------------------------------------------|
-2-2-3-2-2-5-2-2-3-2-2------2-2-3-2-2-5-2-2-3-2-2-33333-|
-2-2-3-2-2-5-2-2-3-2-2------2-2-3-2-2-5-2-2-3-2-2-33333-|  x2
-0-0-1-0-0-3-0-0-1-0-0-3~~~-0-0-1-0-0-3-0-0-1-0-0-11111-|
 . .   . .   . .   . .      . .   . .   . .   . .

|------|
|------|
|------|
|-2----|
|-2----|
|-0----|

That song is easy as hell and kicks ass too, enjoy!!
Comments