Gorgoroth - Odeleggelse Og Undergang Chords & Tabs

 

Odeleggelse Og Undergang Chords & Tabs

Gorgoroth Chords & Tabs

Version: 1 Type: Tab 0 ratings
1 star 2 stars 3 stars 4 stars 5 stars
comments

Odeleggelse Og Undergang Tab

Artist: Gorgoroth
Title: Odeleggelse og Undergang
Album: Under the sign of Hell

Tabbed by elc (elc@o2.pl;elc@onet.pl)

As with any Gorgoroth song, the sound is very distorted and because of this
hearing every note is sometimes imposible. If U find some riff incorect, feel
free to tell me.

Riff 1, tremolo picking,
e|-------------------------------------------------
B|-------------------------------------------------
G|-------------------------------------------------
D|-----7---5-8-----5-----7-------------------------
A|-5-8---7-----4-7---5-8-----4-8-----7-----------4-
E|-------------------------6-----5-8---6-5-3-1-0---


e|-------------------------------------------------|
B|-------------------------------------------------|
G|-------------------------------------------------|
D|-----7---5-8-----5-----7-------------------------|
A|-5-8---7-----4-7---5-8-----4-8-----7-----------4-|
E|-------------------------6-----5-8---6-5-6-5-3---|

Riff 2, tremolo picking,
e|-----------------------------------------------------|
B|-----------------------------------------------------|
G|-7-7---------------------7-7-------------------------|
D|-----7-5-8-7-5---------------7-5-8-7-5---------------|
A|---------------8-7-5-4-----------------8-4-5~--------|
E|-----------------------5-----------------------------|

[ Tab from: http://www.guitartabs.cc/tabs/g/gorgoroth/odeleggelse_og_undergang_tab.html ]
Riff 3, let ring, you can change the order of notes, it doesn't really
matter, sounds good anyway,
e|----------------------------------|
B|----------------------------------|
G|-7-------7---7---6-------6---6----|
D|-7-----7---7--7--6-----6---6--6---|
A|-5---5---------5-4---4---------4--|
E|-5-5------------54-4------------4-|

Riff 4, let ring, order of the notes like in Riff3,
e|----------------------------------|
B|----------------------------------|
G|-3-------3---3---6-------6---6----|
D|-3-----3---3--3--6-----6---6--6---|
A|-1---1---------1-4---4---------4--|
E|-1-1------------14-4------------4-|

Riff 5, "normal" picking, let ring,
e|-------------------------------------------------|
B|-------------------------------------------------|
G|-------------------------------------------------|
D|-------------------------------------5-555-------|
A|-5-555-8-7-5-5-555-8-7-5-5-555-8-7-5-------8-7-5-|
E|-------------------------------------------------|


Riff 6, tremolo picking,
e|--------------------------------------------------------------|
B|--------------------------------------------------------------|
G|-7--------------------------------7---------------------------|
D|---8-5-8757---------------------5---8-5-8757------------------|
A|------------8-5-8-8-7-8-4-5-7-8--------------8-5-8-8-7-8-4-5~-|
E|--------------------------------------------------------------|
Comments