Gorgoroth - Litani Til Satan Chords & Tabs

 

Litani Til Satan Chords & Tabs

Gorgoroth Chords & Tabs

Version: 1 Type: Tab 0 ratings
1 star 2 stars 3 stars 4 stars 5 stars
comments

Litani Til Satan Tab

   
Name: Gorgoroth - Litani Til Satan
Album- Inscript Satan

TUNING: D G C F A D

. - palm mute / - slide up to
\ - slide down to ~ - vibrato
h - hammer on p - pull off
, - slight palm mute () - ghost note, sustained note
" - tremolo note <> - Trill
n - natural harmonic

Suffixes for bend
f - full bend h - half bend
ph - pinched harmonic q - quarter bend
t - tap bend * - see comment
^ - Hold bend r - release bend
x - Stuccatto ~ - vibrato bend

Riff 1 (play 8 times)
------------------------|
------------------------|
------------------------|
------------------------|
--2--5-4-2--2--5-4-2-3--|
-\0--3\2-0--0--3\2-0-1--|
[ Tab from: http://www.guitartabs.cc/tabs/g/gorgoroth/litani_til_satan_tab.html ]
Riff 2 (play 4 times)
---------------------------------------------------------------------------|
---------------------------------------------------------------------------|
---------------------------------------------------------------------------|
-------------------------------------------------5--5--5--5--5--5--5--5--5-|
-2--2--2--2--2--2--2--2--2--2--2--2--2--2--2--2--3--3--3--3--3--3--3--3--3-|
-0--0--0--0--0--0--0--0--0--0--0--0--0--0--0--0----------------------------|

------------------------|
------------------------|
------------------------|
-5--5--5--5--5--5--5----|
-3--3--3--3--3--3--3----|
------------------------|

Fill 1
----------------------------------------|
----------------------------------------|
----------------------------------------|
----------------------------------------|
---7-777-7-777-3-333-3-333--------------|
-0-------------------------3-333-3-333--|
   . ... . ... . ... . ... . ... . ...

Riff 2 x 1
Fill 1 x 1
Riff 2 x 1
Riff 1 x 1 (fade)
End
Comments