Gorgoroth - Funeral Procession Chords & Tabs

 

Funeral Procession Chords & Tabs

Gorgoroth Chords & Tabs

Version: 3 Type: Tab 0 ratings
1 star 2 stars 3 stars 4 stars 5 stars
comments

Funeral Procession Tab

            tempo picking
 |-------||-------------------------------------------------||
 |-------||----------6--------6-----------------------------||
 |---6---||-7--3--7--------7--------6-------14--15--12--14--||
 |-7---7-||-------------7--------7-----7--------------------||
 |-------||-------------------------------------------------||
 |-------||-------------------------------------------------||
[ Tab from: http://www.guitartabs.cc/tabs/g/gorgoroth/funeral_procession_tab_ver_3.html ]
  normal picking
 |-------------------------------------------------------6-----------6-----|
 |-------6-----------6-----------6-----------6---------6---6-------6---6---|
 |-----7---7-------7---7-------7---7-------7---7-----7-------7---7-------7-|
 |---7-------7---7-------7---7-------7---7-------7-8-----------8-----------|
 |-5-----------5-----------5-----------5-----------------------------------|
 |-------------------------------------------------------------------------|
  
  play 4x        play 2x     then
 |-------------||-------------||-------5-----||
 |-----6---6---||-----6---6---||-----5---5---||
 |-------7---7-||---7---7---7-||---6-------6-||
 |---7---------||-8-----------||-7-----------||
 |-5-----------||-------------||-------------||
 |-------------||-------------||-------------||

    tempo picking
 |-------------------------------------------------||
 |----------6--------6-----------------------------||
 |-7--3--7--------7--------6-------14--15--12--14--||
 |-------------7--------7-----7--------------------||
 |-------------------------------------------------||
 |-------------------------------------------------||


 |------||
 |------||
 |-7----||
 |-7----||
 |-5----||
 |------||

   tempo picking all through
 |------------------------||------------------------||----------------||
 |------------------------||------------------------||----------------||
 |-----------------9-10-9-||------------------------||----------------||
 |------------------------||--------------------7-7-||----------------||
 |-10--8--7--4--5---------||-10--8--7--4--5--5------||-10--8--7--4--5-||
 |------------------------||------------------------||----------------||

   tempo picking
 |-------------------------------------||
 |-------------------------------------||
 |--------7--------7--------7--------7-||
 |-----8--------7--------7--------7----||
 |-10--------8--------7--------5-------||
 |-------------------------------------||


   GORGOROTH RULES!!!

 tabbed by *INFERNUS666*
Comments