Gorgoroth - Funeral Procession Chords & Tabs

 

Funeral Procession Chords & Tabs

Gorgoroth Chords & Tabs

Version: 1 Type: Tab 0 ratings
1 star 2 stars 3 stars 4 stars 5 stars
comments

Funeral Procession Tab

Artist: Gorgoroth
Title: Funeral procession
Album: Under the sign of Hell

Tabbed by elc (elc@o2.pl;elc@onet.pl)

As with any Gorgoroth song, the sound is very distorted and because of this
hearing every note is sometimes imposible. If U find some riff incorect, feel
free to tell me.

Riff 1, tremolo picking,
e|---------------1-------1-----------------------------------------|
B|-------------3-------3-------------------------------------------|
G|-2-2-2-2-3-3-----2-2----2-2-6-6-14141414151512121414141414141414-|
D|-0---------------------------------------------------------------|
A|-----------------------------------------------------------------|
E|-----------------------------------------------------------------|

Riff 2, "normal" picking, not sure for this part:-------\
e|-------1-----------1-----------1-----------1-----|    |
B|-----3---3-------3---3-------3---3-------3---3---|    |
G|---2-------2---2-------2---2-------2---2-------2-|    |
D|-0-----------0-----------0-----------0-----------|    |
A|-------------------------------------------------|    |
E|-------------------------------------------------|    |
                                                        |
e|-------------------------------------------------|    |
B|-------3-----------3-----------3-----------2-----|    |
G|---3-3---3-3---3-3---3-3---2-2---2-2---2-2---2---| <--/
D|-3-----------3-----------2-----------2-----------|
A|-----------------------------------------------4-|
E|-------------------------------------------------|

e|-----1---1-------1---1-------1---1-------1---1---|
B|-------3-----------3-----------3-----------3-----|
G|---2-------2---2-------2---2-------2---2-------2-|
D|-0-----------0-----------0-----------0-----------|
A|-------------------------------------------------|
E|-------------------------------------------------|
[ Tab from: http://www.guitartabs.cc/tabs/g/gorgoroth/funeral_procession_tab.html ]
e|-----1---1-------1---1---------1-----------0-----|
B|-------3-----------3---------3---3-------2---2---|
G|---3-------3---3-------3---2-------2---2-------2-|
D|-3-----------3-----------2-----------2-----------|
A|-------------------------------------------------|
E|-------------------------------------------------|

e|-------------------------------------------------|
B|-3-----3-----3-----3-----3-----3-----3-----3-----|
G|---2-----2-----2-----2-----2-----2-----2-----2---|
D|-----0-----0-----0-----0-----0-----0-----0-----0-|
A|-------------------------------------------------|
E|-------------------------------------------------|

e|-------------------------------------------------|
B|-------3-----------3-----------3-----------2-----|
G|---3-3---3-3---3-3---3-3---2-2---2-2---2-2---2---|
D|-3-----------3-----------2-----------2-----------|
A|-----------------------------------------------4-|
E|-------------------------------------------------|

e|-----1---1-------1---1-------1---1-------1---1---|
B|-------3-----------3-----------3-----------3-----|
G|---2-------2---2-------2---2-------2---2-------2-|
D|-0-----------0-----------0-----------0-----------|
A|-------------------------------------------------|
E|-------------------------------------------------|

e|-----1---1-------1---1---------1-----------0-----|
B|-------3-----------3---------3---3-------2---2---|
G|---3-------3---3-------3---2-------2---2-------2-|
D|-3-----------3-----------2-----------2-----------|
A|-------------------------------------------------|
E|-------------------------------------------------|

Riff 3, tremolo picking,
e|-------------------------------------------------|
B|-------------------------------------------5-6-5-|
G|-3-----------2-----------------------------------|
D|-------------------------2-----------------------|
A|-------------------------------4-----5-----------|
E|-------------------------------------------------|


Riff 4, tremolo picking,
e|-------------------------------------------------|
B|-------------------------------------------------|
G|-----3-----3-----3-----3-------------------------|
D|---3-----2-----2-----2---------------------------|
A|-5-----3-----2-----0-----------------------------|
E|-------------------------------------------------|
Comments