Gorgoroth - Drommer Om Dod Chords & Tabs

 

Drommer Om Dod Chords & Tabs

Gorgoroth Chords & Tabs

Version: 1 Type: Tab 0 ratings
1 star 2 stars 3 stars 4 stars 5 stars
comments

Drommer Om Dod Tab

   
"Drömmer Om Död" as performed by Gorgoroth on their 19 album "Pentagram"

Transcribed by Lord Upir on 15 July 2000

Normal Tuning (EADGBe)

The numbers above the tablature show how to count

Intro: drum fill, then:

Riff 1
e|-----------------------------------------------------------------|
B|-----------------------------------------------------------------|
G|-------------------------------------4-------4-------4-------4---|
D|-4-4-5-4-4-4-5-4-4-4-5-4-4-4-5-4-3-3-3-3-3-3-3-3-3-3-3-3-3-3-3-3-|
A|-2-2-2-2-2-2-2-2-2-2-2-2-2-2-2-2-1-1-1-1-1-1-1-1-1-1-1-1-1-1-1-1-|
E|-----------------------------------------------------------------|
[ Tab from: http://www.guitartabs.cc/tabs/g/gorgoroth/drommer_om_dod_tab.html ]
Riff 2, tremolo picking. The second guitar is shown below. There are
some notes missing in that because it's hard to hear what's played
   1 2 3 4 1 2 3 4 1 2 3 4 1 2 3 4
e|---------------------------------|
B|---------------------------------|
G|-2-2-3-3-2-2-3-2-1-1-2-2-1-1-2-1-|
D|---------------------------------|
A|---------------------------------|
E|---------------------------------|
 |                                 |
e|---------5---------------4-------|
B|-----------6---------------5-----|
G|-------------7---------------6---|
D|---------------8---------------7-|
A|---------------------------------|
E|---------------------------------|

Play riff 1
Play riff 2
Play an E5 power chords for two measures

Riff 3, watch the timing, it's important. No tremolo picking.
   1 2 3 4 1 2 3 4 1 2 3 4 1 2 3 4
e|---------------------------------|
B|---------------------------------|
G|---------------------------------|
D|-------------------6---5---4-----|
A|-2-2-2-2-2-2-2-2-2-4-2-3-2-2-2-3-|
E|-0-0-0-0-0-0-0-0-0---0---0---0-1-|

Riff 4, not completely good but okay
   1 2 3 4 1 2 3 4 1 2 3 4 1 2 3 4
e|---------------------------------|
B|---------------------------------|
G|---------------------------------|
D|---------------5---------4---5-4-|
A|-2---5---4---5-3-5---4---2---3-2-|
E|-0---3---2---3---3---2-----------|
Comments