Gorefest - State Of Mind Chords & Tabs

 

State Of Mind Chords & Tabs

Gorefest Chords & Tabs

Version: 1 Type: Tab 0 ratings
1 star 2 stars 3 stars 4 stars 5 stars
comments

State Of Mind Tab

                          GOREFEST - STATE OF MIND
                          From the Album FALSE (1992)
                          Version 1.0 - December 2001

Tabbed by Bobby Rafuse (metal_music69@hotmail.com)

Check Out Death8699.com, With More Transcriptions On It:
http://www.death8699.com

.  - palm mute                  /  - slide up to
\  - slide down to              ~  - vibrato
h  - hammer on                  b  - bend
p  - pull off                   Suffixes for bend
ph - pinch harmonic             f - full bend    h - half bend
*  - see comment                r - release      t - tap bend
X  - percussion mute            ~ - vibrato bend
@  - slight palm mute           () - ghost note, sustained note



*note* listen to the song for the correct timing


Intro
|---------------------------------------------------------------------------
-|
|---------------------------------------------------------------------------
-|
|---------------------------------------------------------------------------
-| Gtr.
|----------------5-----6-----5--------------------------------------------5-
-|  1
|-2--------------------------------3---2-------------------2----------------
-|
|-0-----0--1--2--3-----4-----3-----1---0-----0---1--2---3--0-----0--1--2--3-
-|
|									     |
|---------------------------------------------------------------------------
-|
|---------------------------------------------------------------------------
-|
|---------------------------------------------------------------------------
-| Gtr.
|----------------------6-----5----------------------------------------------
-|  2
|-2--------------------------------3---2-------------------2----------------
-|
|-0--------------------4-----3-----1---0-------------------0----------------
-|


Intro (cont..)
|---------------------------------------------------------------------------
---|
|---------------------------------------------------------------------------
---|
|---------------------------------------------------------------------------
---| Gtr.
|-6-----5-----------------------------6-----5--4---3------------------------
---|  1
|-------------3---2-------------------4-----3--2---1-----5--3---4-----2--2--
3--|
|-4-----3-----1---0-----0---1--2---3---------------------3--1---2-----0--0--
1--|
pm                                                                    .  .
.  |
|									       |
|---------------------------------------------------------------------------
---|
|---------------------------------------------------------------------------
---|
|---------------------------------------------------------------------------
---| Gtr.
|-6-----5-----------------------------6-----5--4---3------------------------
---|  2
|-------------3---2-------------------4-----3--2---1-----5--3---4-----2--2--
3--|
|-4-----3-----1---0--------------------------------------3--1---2-----0--0--
1--|
pm                                                                    .  .
.


Riff 1
|----------------------------------------------------------------|
|----------------------------------------------------------------|
|----------------------------------------------------------------| Gtr.
|----------------------------------------------------------------|  1
|----------------------------------------------------------------|
|-0-0-0-0-0-0-0-0-0-0-1-2-3-3-3-3-3-3-3-3-3-3-3-3-4-4-4-4-4-4-3--|
|								 |
|----------------------------------------------------------------|
|-------------------------------------------------------------0--|
|-------------------------------------------------------------0--| Gtr.
|-------------------------------------------------------------0--|  2
|----------------------------------------------------------------|
|-0-0-0-0-0-0-0-0-0-0-0-0-0-0-0-0-0-0-0-0-0-0-0-0-4-4-4-4-4-4-3--|


Riff 1 (cont..)
|---------------------------------|
|---------------------------------|
|---------------------------------| Gtr.1
|---------------------------------|
|-5--3----------------------------|
|-3--1---0-0-0-0-0-0-0-0-0-2-2-2--|
|				  |
|---------------------------------|
|---------------------------------|
|---------------------------------| Gtr.
|---------------------------------|  2
|-5--3----------------------------|
|-3--1---0-0-0-0-0-0-0-0-0-2-2-2--|


Riff 2a
|---------------------------------------------------------------------------
----|
|---------------------------------------------------------------------------
----|
|---------------------------------------------------------------------------
----|
|-6-6-6-6-6-6-6-6-6-5--4---3-3-3-3-3-3-3-3-3--------------------------------
----|
|-4-4-4-4-4-4-4-4-4-3--2---1-1-1-1-1-1-1-1-1-5--3---4-4-4-4-4-4-4-4-4--2--2-
-3--|
|--------------------------------------------3--1---2-2-2-2-2-2-2-2-2--0--0-
-1--|
pm                                                                     .  .
.


Fill 1
|--------------------------|
|--------------------------|
|--------------------------|
|--------------------------|
|--------------------------|
|-0-0-0-0-0-0-0-0-0-0-0-0--|


Riff 3a
|--------------------------|
|--------------------------|
|--------------------------|
|--------------------------|
|-2-2-2-3-3-3-6-6-6-3-3-3--|
|-0-0-0-1-1-1-4-4-4-1-1-1--|


Riff 3b
|--------------------------|
|--------------------------|
|--------------------------|
|--------------------------|
|-2-2-2-3-3-3-6-6-6-3-3-3--|
|-0-0-0-1-1-1-4-4-4-1-1-1--|
pm. . . . . . . . . . . .
[ Tab from: http://www.guitartabs.cc/tabs/g/gorefest/state_of_mind_tab.html ]

Riff 4a
|------------------------------------------------|
|-------------------------------------------ah---|
|--------------------------------------------3~--| Gtr.
|-------------2-3-2-1------------------2-3-2-----|  1
|---------------------2-1------------------------|
|-0-0-0-0--0---------------0-0-0-0--0------------|
|						 |
|------------------------------------------------|
|------------------------------------------------|
|------------------------------------------------| Gtr.
|-------------2-3-2-1------------------2-3-2-1~--|  2
|---------------------2-1------------------------|
|-0-0-0-0--0---------------0-0-0-0--0------------|


Riff 4b
|------------------------------------------------|
|-------------------------------------------ah---|
|--------------------------------------------3~--| Gtr.
|-------------2-3-2-1------------------2-3-2-----|  1
|-2-2-2-2-------------2-1--2-2-2-2---------------|
|-0-0-0-0--0---------------0-0-0-0--0------------|
pm. . . .                  . . . .               |
|						 |
|------------------------------------------------|
|------------------------------------------------|
|------------------------------------------------| Gtr.
|-------------2-3-2-1------------------2-3-2-1~--|  2
|-2-2-2-2-------------2-1--2-2-2-2---------------|
|-0-0-0-0--0---------------0-0-0-0--0------------|
pm. . . .                  . . . .


Riff 5
|------------------------------------------------------------|
|------------------------------------------------------------|
|------------------------------------------------------------| Gtr.
|------------------------------------------------------------|  1
|------------------------------------------------4--5--4--0--|
|-6~-----2~-----6---7---6---2~-----6~-----2~-----2--3--2--1--|
pm                                               .  .  .     |
|							     |
|------------------------------------------------------------|
|------------------------------------------------------------|
|-7~-----3~-----7---8---7---3~-----7~-----3~-----------------| Gtr.
|------------------------------------------------------------|  2
|------------------------------------------------4--5--4--0--|
|------------------------------------------------2--3--2--1--|
pm                                               .  .  .


Riff 2b
|----------------------------------------------------------------------|
|----------------------------------------------------------------------|
|----------------------------------------------------------------------|
|-6-6-6-6-6-6-6-6-6-5--4---3-3-3-3-3-3-3-3-3---------------------------|
|-4-4-4-4-4-4-4-4-4-3--2---1-1-1-1-1-1-1-1-1-5--3---4-4-4-4-4-4-4-4-4--|
|--------------------------------------------3--1---2-2-2-2-2-2-2-2-2--|


Riff 6
|--------------------------------------------------------------------|
|--------------------------------------------------------------------|
|--------------------------------------------------------------------|
|----3-2-------------3-2-------------3-2-----------------------------|
|--------1---------------1---------------1--2-2-2-3-3-3-6-6-6-3-3-3--|
|-0---------0-00-0----------0-00-0----------0-0-0-1-1-1-4-4-4-1-1-1--|


Fill 2
|-----------|
|-----------|
|-----------|
|----3-2----|
|--------1--|
|-0---------|


Riff 7a
|--------------------------------------------------|
|--------------------------------------------------|
|--------------------------------------------------| Gtr.
|-----------3-2--------------3-2-------------------|  1
|-2-2-2-2-2-----1--2-2-2-2-2-----1--2---3---6---3--|
|-0-0-0-0-0--------0-0-0-0-0--------0---1---4---1--|
pm. . . . .        . . . . .                       |
|						   |
|--------------------------------------------------|
|--------------------------------------------------|
|11\9~------------11\7~------------11\7~------7\4~-| Gtr.
|--------------------------------------------------|  2
|-9\7~-------------9\5~-------------9\5~------5\2~-|
|--------------------------------------------------|


Riff 7b
|------------------------------------------------------------------|
|------------------------------------------------------------------|
|------------------------------------------------------------------| Gtr.
|-----------3-2--------------3-2-------------------------3-2-------|  1
|-2-2-2-2-2-----1--2-2-2-2-2-----1--2---3---6---3------------1--2--|
|-0-0-0-0-0--------0-0-0-0-0--------0---1---4---1---------------0--|
pm. . . . .        . . . . .                                       |
|								   |
|------------------------------------------------------------------|
|------------------------------------------------------------------|
|11\9~------------11\7~------------11\7~------7\4~-----------------| Gtr.
|--------------------------------------------------------3-2-------|  2
|-9\7~-------------9\5~-------------9\5~------5\2~-----------1--2--|
|---------------------------------------------------------------0--|

end of song.

Song Structure

Intro
Riff 1 2x
Riff 2a
Fill 1
Riff 2a
Riff 3a 3x
Riff 3b

Riff 4a 2x
Riff 4b 2x
Riff 3a 4x
Riff 4a 2x
Riff 4b 2x
Riff 5 2x
Riff 4a 2x
Riff 4b 2x
Riff 3a 3x
Riff 3b

Intro
Riff 1 2x
Riff 2a
Fill 1
Riff 2b

Riff 6
Fill 2
Riff 6
Fill 2
Riff 7a
Fill 2
Riff 7a
Fill 2
Riff 7a
Fill 2
Riff 7a
Fill 2
Riff 6
Fill 2
Riff 6
Fill 2
Riff 7a
Fill 2
Riff 7a
Fill 2
Riff 7a
Fill 2
Riff 7b

end.


Check Out Death8699.com, With More Transcriptions On It:
http://www.death8699.com
Comments