Gorefest - Reality - When You Die Chords & Tabs

 

Reality - When You Die Chords & Tabs

Gorefest Chords & Tabs

Version: 1 Type: Tab 0 ratings
1 star 2 stars 3 stars 4 stars 5 stars
comments

Reality - When You Die Tab

                             Gorefest
                       Reality - When You Die

  Tabbed by Nedi Lesev (vaquero@abv.bg)
  
 Tune 'B'(2 1/2 steps down)
 It's only Boud's part.

 pm. - palm mute
 (0) - ghost note
  ~ - vibrato
 
  Riff 1
|--------------------------------------------|
|--------------------------------------------|
|--------------------------------------------| x1
|--------------------------------------------|
|-2-10-9-----12-9-----7-10-------------------|
|-0-8--7-(0)-10-7-(0)-5-8--0-0-000-0000000---|
pm.       .        .       . . ... .......

|------------------------------------------|
|------------------------------------------|
|------------------------------------------| x3
|------------------------------------------|
|-10-9-----12-9-----7-10-------------------|
|-8--7-(0)-10-7-(0)-5-8--0-0-000-0000000---|
pm      .        .       . . ... .......  

  Riff 2
|----------------------------|
|----------------------------|
|----------------------------| x4
|----------------------------|
|-10-9---12-9---9-10~--------|
|----------------------------|

 Riff 3
|--------------------------------------|
|--------------------------------------|
|--------------------------------------| x2
|--------------------------------------|
|---10-9-----12-9-----7-10-------------|
|-0-8--7-(0)-10-7-(0)-5-8--0-3~-2~-1~--|
pm.       .        .       

  Riff 4
|-------------------------------------|
|-------------------------------------|
|-------------------------------------| x6
|-2--5--3---------2--5--3-------------|
|-2--5--3---------2--5--3-------------|
|-0--3--1---------0--3--1---3~-2~-1~--|

 Riff 5
|-----------------------------|
|-----------------------------|
|-----------------------------| x4
|---5-4-2-------7-5-4--4-5----|
|-2-3-2-0-----5-5-3-2--2-3----|
|-0----------03---------------|
pm.

 Riff 4 - x6
 Riff 5 - x4 Play the 4th time like that:
[ Tab from: http://www.guitartabs.cc/tabs/g/gorefest/reality_when_you_die_tab.html ]
|---------------------------------|
|---------------------------------|
|---------------------------------|
|---5-4-2--------7-5-4--4-5-2-----|
|-2-3-2-0------5-5-3-2--2-3-0-----|
|-0-----------03------------------|
pm.

 Riff 6 Under solo
|------------------------------------------------------------------|
|------------------------------------------------------------------|
|------------------------------------------------------------------| x2
|------------------------------------------------------------------|
|------------------------------------------------------------------|
|-0000000033333333000000003333333300000000333333330000000044444444-|
pm................................................................

 Riff 7
|---------------------------------|
|---------------------------------|
|---------------------------------| x4
|-5--6-3-----------4--5-----------|
|-5--6-3-22222222--4--5--33333333-|
|-3--4-1-00000000--2--3--11111111-|

 Riff 8
|-------------------------------------------------|
|-------------------------------------------------|
|-------------------------------------------------| x2
|-55554444----------------55554444-------99999999-|
|-33332222-5-4-3-22222222-33332222-5-4-3-77777777-|
|----------3-2-1-00000000----------3-2-1----------|

 Riff 7 - x2

 Then again Riff 8
|-------------------------------------------------|
|-------------------------------------------------|
|-------------------------------------------------|
|-55554444----------------55554444-------99999999-|
|-33332222-5-4-3-22222222-33332222-5-4-3-77777777-|
|----------3-2-1-00000000----------3-2-1----------|
 cont.
|----------------------------------------|
|----------------------------------------|
|----------------------------------------|
|-55554444----------------55554444-------|
|-33332222-5-4-3-22222222-33332222-5-4-3-|
|----------3-2-1-00000000----------3-2-1-|

 Riff 1 - x8
 Riff 2 - x4
 Riff 1 - xn

 That's it!
Comments